  0
SECTION
  2
HEADER
  9
$ACADVER
  1
AC1015
  9
$ACADMAINTVER
 70
     6
  9
$DWGCODEPAGE
  3
ANSI_1254
  9
$INSBASE
 10
0.0
 20
0.0
 30
0.0
  9
$EXTMIN
 10
0.0
 20
0.0
 30
0.0
  9
$EXTMAX
 10
279.4
 20
215.9
 30
0.0
  9
$LIMMIN
 10
0.0
 20
0.0
  9
$LIMMAX
 10
279.4
 20
215.9
  9
$ORTHOMODE
 70
     0
  9
$REGENMODE
 70
     1
  9
$FILLMODE
 70
     1
  9
$QTEXTMODE
 70
     0
  9
$MIRRTEXT
 70
     1
  9
$LTSCALE
 40
1.0
  9
$ATTMODE
 70
     1
  9
$TEXTSIZE
 40
3.5
  9
$TRACEWID
 40
1.0
  9
$TEXTSTYLE
  7
Standard
  9
$CLAYER
  8
0
  9
$CELTYPE
  6
ByLayer
  9
$CECOLOR
 62
   256
  9
$CELTSCALE
 40
1.0
  9
$DISPSILH
 70
     0
  9
$DIMSCALE
 40
1.0
  9
$DIMASZ
 40
3.5
  9
$DIMEXO
 40
1.0
  9
$DIMDLI
 40
3.75
  9
$DIMRND
 40
0.0
  9
$DIMDLE
 40
0.0
  9
$DIMEXE
 40
1.0
  9
$DIMTP
 40
0.0
  9
$DIMTM
 40
0.0
  9
$DIMTXT
 40
3.5
  9
$DIMCEN
 40
2.5
  9
$DIMTSZ
 40
0.0
  9
$DIMTOL
 70
     0
  9
$DIMLIM
 70
     0
  9
$DIMTIH
 70
     1
  9
$DIMTOH
 70
     1
  9
$DIMSE1
 70
     0
  9
$DIMSE2
 70
     0
  9
$DIMTAD
 70
     1
  9
$DIMZIN
 70
     0
  9
$DIMBLK
  1

  9
$DIMASO
 70
     1
  9
$DIMSHO
 70
     1
  9
$DIMPOST
  1

  9
$DIMAPOST
  1

  9
$DIMALT
 70
     0
  9
$DIMALTD
 70
     3
  9
$DIMALTF
 40
0.0393700787
  9
$DIMLFAC
 40
1.0
  9
$DIMTOFL
 70
     1
  9
$DIMTVP
 40
0.0
  9
$DIMTIX
 70
     0
  9
$DIMSOXD
 70
     0
  9
$DIMSAH
 70
     0
  9
$DIMBLK1
  1

  9
$DIMBLK2
  1

  9
$DIMSTYLE
  2
ISO-25
  9
$DIMCLRD
 70
     0
  9
$DIMCLRE
 70
     0
  9
$DIMCLRT
 70
     0
  9
$DIMTFAC
 40
1.0
  9
$DIMGAP
 40
1.524
  9
$DIMJUST
 70
     0
  9
$DIMSD1
 70
     0
  9
$DIMSD2
 70
     0
  9
$DIMTOLJ
 70
     0
  9
$DIMTZIN
 70
     0
  9
$DIMALTZ
 70
     0
  9
$DIMALTTZ
 70
     0
  9
$DIMUPT
 70
     0
  9
$DIMDEC
 70
     2
  9
$DIMTDEC
 70
     2
  9
$DIMALTU
 70
     2
  9
$DIMALTTD
 70
     3
  9
$DIMTXSTY
  7
Standard
  9
$DIMAUNIT
 70
     0
  9
$DIMADEC
 70
     2
  9
$DIMALTRND
 40
0.0
  9
$DIMAZIN
 70
     0
  9
$DIMDSEP
 70
    44
  9
$DIMATFIT
 70
     3
  9
$DIMFRAC
 70
     0
  9
$DIMLDRBLK
  1

  9
$DIMLUNIT
 70
     2
  9
$DIMLWD
 70
    -2
  9
$DIMLWE
 70
    -2
  9
$DIMTMOVE
 70
     0
  9
$LUNITS
 70
     2
  9
$LUPREC
 70
     2
  9
$SKETCHINC
 40
1.0
  9
$FILLETRAD
 40
10.0
  9
$AUNITS
 70
     0
  9
$AUPREC
 70
     2
  9
$MENU
  1
.
  9
$ELEVATION
 40
0.0
  9
$PELEVATION
 40
0.0
  9
$THICKNESS
 40
0.0
  9
$LIMCHECK
 70
     0
  9
$CHAMFERA
 40
0.0
  9
$CHAMFERB
 40
0.0
  9
$CHAMFERC
 40
0.0
  9
$CHAMFERD
 40
0.0
  9
$SKPOLY
 70
     0
  9
$TDCREATE
 40
2460616.666902083
  9
$TDUCREATE
 40
2460616.541902083
  9
$TDUPDATE
 40
2460616.666902268
  9
$TDUUPDATE
 40
2460616.541902268
  9
$TDINDWG
 40
0.0000000116
  9
$TDUSRTIMER
 40
0.0000000116
  9
$USRTIMER
 70
     1
  9
$ANGBASE
 50
0.0
  9
$ANGDIR
 70
     0
  9
$PDMODE
 70
     0
  9
$PDSIZE
 40
-1.0
  9
$PLINEWID
 40
0.0
  9
$SPLFRAME
 70
     0
  9
$SPLINETYPE
 70
     6
  9
$SPLINESEGS
 70
     8
  9
$HANDSEED
  5
10F
  9
$SURFTAB1
 70
     6
  9
$SURFTAB2
 70
     6
  9
$SURFTYPE
 70
     6
  9
$SURFU
 70
     6
  9
$SURFV
 70
     6
  9
$UCSBASE
  2

  9
$UCSNAME
  2

  9
$UCSORG
 10
0.0
 20
0.0
 30
0.0
  9
$UCSXDIR
 10
1.0
 20
0.0
 30
0.0
  9
$UCSYDIR
 10
0.0
 20
1.0
 30
0.0
  9
$UCSORTHOREF
  2

  9
$UCSORTHOVIEW
 70
     0
  9
$UCSORGTOP
 10
0.0
 20
0.0
 30
0.0
  9
$UCSORGBOTTOM
 10
0.0
 20
0.0
 30
0.0
  9
$UCSORGLEFT
 10
0.0
 20
0.0
 30
0.0
  9
$UCSORGRIGHT
 10
0.0
 20
0.0
 30
0.0
  9
$UCSORGFRONT
 10
0.0
 20
0.0
 30
0.0
  9
$UCSORGBACK
 10
0.0
 20
0.0
 30
0.0
  9
$PUCSBASE
  2

  9
$PUCSNAME
  2

  9
$PUCSORG
 10
0.0
 20
0.0
 30
0.0
  9
$PUCSXDIR
 10
1.0
 20
0.0
 30
0.0
  9
$PUCSYDIR
 10
0.0
 20
1.0
 30
0.0
  9
$PUCSORTHOREF
  2

  9
$PUCSORTHOVIEW
 70
     0
  9
$PUCSORGTOP
 10
0.0
 20
0.0
 30
0.0
  9
$PUCSORGBOTTOM
 10
0.0
 20
0.0
 30
0.0
  9
$PUCSORGLEFT
 10
0.0
 20
0.0
 30
0.0
  9
$PUCSORGRIGHT
 10
0.0
 20
0.0
 30
0.0
  9
$PUCSORGFRONT
 10
0.0
 20
0.0
 30
0.0
  9
$PUCSORGBACK
 10
0.0
 20
0.0
 30
0.0
  9
$USERI1
 70
     0
  9
$USERI2
 70
     0
  9
$USERI3
 70
     0
  9
$USERI4
 70
     0
  9
$USERI5
 70
     0
  9
$USERR1
 40
0.0
  9
$USERR2
 40
0.0
  9
$USERR3
 40
0.0
  9
$USERR4
 40
0.0
  9
$USERR5
 40
0.0
  9
$WORLDVIEW
 70
     1
  9
$SHADEDGE
 70
     3
  9
$SHADEDIF
 70
    70
  9
$TILEMODE
 70
     1
  9
$MAXACTVP
 70
    64
  9
$PINSBASE
 10
0.0
 20
0.0
 30
0.0
  9
$PLIMCHECK
 70
     0
  9
$PEXTMIN
 10
1.0000000000E+20
 20
1.0000000000E+20
 30
1.0000000000E+20
  9
$PEXTMAX
 10
-1.0000000000E+20
 20
-1.0000000000E+20
 30
-1.0000000000E+20
  9
$PLIMMIN
 10
0.0
 20
0.0
  9
$PLIMMAX
 10
420.0
 20
297.0
  9
$UNITMODE
 70
     0
  9
$VISRETAIN
 70
     1
  9
$PLINEGEN
 70
     0
  9
$PSLTSCALE
 70
     1
  9
$TREEDEPTH
 70
  3020
  9
$CMLSTYLE
  2
Standard
  9
$CMLJUST
 70
     0
  9
$CMLSCALE
 40
20.0
  9
$PROXYGRAPHICS
 70
     1
  9
$MEASUREMENT
 70
     1
  9
$CELWEIGHT
370
    -1
  9
$ENDCAPS
280
     0
  9
$JOINSTYLE
280
     0
  9
$LWDISPLAY
290
     1
  9
$INSUNITS
 70
     4
  9
$HYPERLINKBASE
  1

  9
$STYLESHEET
  1

  9
$XEDIT
290
     1
  9
$CEPSNTYPE
380
     0
  9
$PSTYLEMODE
290
     1
  9
$FINGERPRINTGUID
  2
{fee39606-12cd-49a5-9729-6e65fa6a1173}
  9
$VERSIONGUID
  2
{FAEB1C32-E019-11D5-929B-00C0DF256EC4}
  9
$EXTNAMES
290
     1
  9
$PSVPSCALE
 40
0.0
  9
$OLESTARTUP
290
     0
  0
ENDSEC
  0
SECTION
  2
CLASSES
  0
CLASS
  1
ACDBDICTIONARYWDFLT
  2
AcDbDictionaryWithDefault
  3
ObjectDBX Classes
 90
        0
280
     0
281
     0
  0
CLASS
  1
VISUALSTYLE
  2
AcDbVisualStyle
  3
ObjectDBX Classes
 90
     4095
280
     0
281
     0
  0
CLASS
  1
MATERIAL
  2
AcDbMaterial
  3
ObjectDBX Classes
 90
     1153
280
     0
281
     0
  0
CLASS
  1
SCALE
  2
AcDbScale
  3
ObjectDBX Classes
 90
     1153
280
     0
281
     0
  0
CLASS
  1
TABLESTYLE
  2
AcDbTableStyle
  3
ObjectDBX Classes
 90
     4095
280
     0
281
     0
  0
CLASS
  1
MLEADERSTYLE
  2
AcDbMLeaderStyle
  3
ACDB_MLEADERSTYLE_CLASS
 90
     4095
280
     0
281
     0
  0
CLASS
  1
SUN
  2
AcDbSun
  3
SCENEOE
 90
     1153
280
     0
281
     0
  0
CLASS
  1
ACDBPLACEHOLDER
  2
AcDbPlaceHolder
  3
ObjectDBX Classes
 90
        0
280
     0
281
     0
  0
CLASS
  1
LAYOUT
  2
AcDbLayout
  3
ObjectDBX Classes
 90
        0
280
     0
281
     0
  0
ENDSEC
  0
SECTION
  2
TABLES
  0
TABLE
  2
VPORT
  5
8
330
0
100
AcDbSymbolTable
 70
     1
  0
VPORT
  5
29
330
8
100
AcDbSymbolTableRecord
100
AcDbViewportTableRecord
  2
*Active
 70
     0
 10
0.0
 20
0.0
 11
1.0
 21
1.0
 12
139.7
 22
107.95
 13
0.0
 23
0.0
 14
10.0
 24
10.0
 15
10.0
 25
10.0
 16
0.0
 26
0.0
 36
1.0
 17
0.0
 27
0.0
 37
0.0
 40
215.9
 41
1.2941176471
 42
50.0
 43
0.0
 44
0.0
 50
0.0
 51
0.0
 71
     0
 72
  2000
 73
     1
 74
     3
 75
     0
 76
     0
 77
     0
 78
     0
281
     0
 65
     1
110
0.0
120
0.0
130
0.0
111
1.0
121
0.0
131
0.0
112
0.0
122
1.0
132
0.0
 79
     0
146
0.0
  0
ENDTAB
  0
TABLE
  2
LTYPE
  5
5
330
0
100
AcDbSymbolTable
 70
     6
  0
LTYPE
  5
14
330
5
100
AcDbSymbolTableRecord
100
AcDbLinetypeTableRecord
  2
ByBlock
 70
     0
  3

 72
    65
 73
     0
 40
0.0
  0
LTYPE
  5
15
330
5
100
AcDbSymbolTableRecord
100
AcDbLinetypeTableRecord
  2
ByLayer
 70
     0
  3

 72
    65
 73
     0
 40
0.0
  0
LTYPE
  5
16
330
5
100
AcDbSymbolTableRecord
100
AcDbLinetypeTableRecord
  2
Continuous
 70
     0
  3
Solid line
 72
    65
 73
     0
 40
0.0
  0
LTYPE
  5
6E
330
5
100
AcDbSymbolTableRecord
100
AcDbLinetypeTableRecord
  2
HIDDEN
 70
     0
  3
Hidden __ __ __ __ __ __ __ __ __ __ __ __ __ __
 72
    65
 73
     2
 40
1.905
 49
1.27
 74
     0
 49
-0.635
 74
     0
  0
LTYPE
  5
6F
330
5
100
AcDbSymbolTableRecord
100
AcDbLinetypeTableRecord
  2
PHANTOM
 70
     0
  3
Phantom ______  __  __  ______  __  __  ______
 72
    65
 73
     6
 40
12.7
 49
6.35
 74
     0
 49
-1.27
 74
     0
 49
1.27
 74
     0
 49
-1.27
 74
     0
 49
1.27
 74
     0
 49
-1.27
 74
     0
  0
LTYPE
  5
70
330
5
100
AcDbSymbolTableRecord
100
AcDbLinetypeTableRecord
  2
CENTER
 70
     0
  3
Center ____ _ ____ _ ____ _ ____ _ ____ _ ____
 72
    65
 73
     4
 40
10.16
 49
6.35
 74
     0
 49
-1.27
 74
     0
 49
1.27
 74
     0
 49
-1.27
 74
     0
  0
LTYPE
  5
71
330
5
100
AcDbSymbolTableRecord
100
AcDbLinetypeTableRecord
  2
CENTERX2
 70
     0
  3
Center (2x) ________  __  ________  __  _____
 72
    65
 73
     4
 40
20.32
 49
12.7
 74
     0
 49
-2.54
 74
     0
 49
2.54
 74
     0
 49
-2.54
 74
     0
  0
LTYPE
  5
72
330
5
100
AcDbSymbolTableRecord
100
AcDbLinetypeTableRecord
  2
DOT2
 70
     0
  3
Dot (.5x) ........................................
 72
    65
 73
     2
 40
0.635
 49
0.0
 74
     0
 49
-0.635
 74
     0
  0
ENDTAB
  0
TABLE
  2
LAYER
  5
2
330
0
100
AcDbSymbolTable
 70
    17
  0
LAYER
  5
10
330
2
100
AcDbSymbolTableRecord
100
AcDbLayerTableRecord
  2
0
 70
     0
 62
     7
  6
Continuous
370
    -3
390
F
  0
LAYER
  5
73
330
2
100
AcDbSymbolTableRecord
100
AcDbLayerTableRecord
  2
FORMAT
 70
     0
 62
     7
  6
Continuous
370
    -3
390
F
  0
LAYER
  5
74
330
2
100
AcDbSymbolTableRecord
100
AcDbLayerTableRecord
  2
YARDIMCI_GEOMETRI
 70
     0
 62
    -6
  6
Continuous
290
     0
370
    -3
390
F
  0
LAYER
  5
75
330
2
100
AcDbSymbolTableRecord
100
AcDbLayerTableRecord
  2
SAYFA_CERCEVESI
 70
     0
 62
     7
  6
Continuous
370
    25
390
F
  0
LAYER
  5
76
330
2
100
AcDbSymbolTableRecord
100
AcDbLayerTableRecord
  2
ANTET
 70
     0
 62
     7
  6
Continuous
370
    -3
390
F
  0
LAYER
  5
77
330
2
100
AcDbSymbolTableRecord
100
AcDbLayerTableRecord
  2
OLCU
 70
     0
 62
   150
  6
Continuous
370
    -3
390
F
  0
LAYER
  5
78
330
2
100
AcDbSymbolTableRecord
100
AcDbLayerTableRecord
  2
METIN
 70
     0
 62
    96
  6
Continuous
370
    -3
390
F
  0
LAYER
  5
79
330
2
100
AcDbSymbolTableRecord
100
AcDbLayerTableRecord
  2
BALON
 70
     0
 62
     5
  6
Continuous
370
    -3
390
F
  0
LAYER
  5
7A
330
2
100
AcDbSymbolTableRecord
100
AcDbLayerTableRecord
  2
VURGU
 70
     0
 62
     7
  6
Continuous
370
    -3
390
F
  0
LAYER
  5
7B
330
2
100
AcDbSymbolTableRecord
100
AcDbLayerTableRecord
  2
SILIK
 70
     0
 62
     7
  6
Continuous
370
    -3
390
F
  0
LAYER
  5
7C
330
2
100
AcDbSymbolTableRecord
100
AcDbLayerTableRecord
  2
MODEL
 70
     0
 62
     7
  6
Continuous
370
    -3
390
F
  0
LAYER
  5
7D
330
2
100
AcDbSymbolTableRecord
100
AcDbLayerTableRecord
  2
DETAYLANDıRMA
 70
     0
 62
   190
  6
Continuous
370
    -3
390
F
  0
LAYER
  5
7E
330
2
100
AcDbSymbolTableRecord
100
AcDbLayerTableRecord
  2
TOLERANS
 70
     0
 62
   230
  6
Continuous
370
    -3
390
F
  0
LAYER
  5
7F
330
2
100
AcDbSymbolTableRecord
100
AcDbLayerTableRecord
  2
MERKEZ_CIZGILERI
 70
     0
 62
    30
  6
Continuous
370
    -3
390
F
  0
LAYER
  5
80
330
2
100
AcDbSymbolTableRecord
100
AcDbLayerTableRecord
  2
KESIT-DETAY_CIZGILERI
 70
     0
 62
     7
  6
Continuous
370
    -3
390
F
  0
LAYER
  5
81
330
2
100
AcDbSymbolTableRecord
100
AcDbLayerTableRecord
  2
\U+041E\U+0421\U+0415\U+0412\U+042B\U+0415
 70
     0
 62
     7
  6
Continuous
370
    -3
390
F
  0
LAYER
  5
82
330
2
100
AcDbSymbolTableRecord
100
AcDbLayerTableRecord
  2
\U+0412\U+041E\U+0414\U+042F\U+041D\U+042B\U+0415_\U+0417\U+041D\U+0410\U+041A\U+0418
 70
     0
 62
    11
  6
Continuous
370
    -3
390
F
  0
ENDTAB
  0
TABLE
  2
STYLE
  5
3
330
0
100
AcDbSymbolTable
 70
     1
  0
STYLE
  5
11
330
3
100
AcDbSymbolTableRecord
100
AcDbTextStyleTableRecord
  2
Standard
 70
     0
 40
0.0
 41
1.0
 50
0.0
 71
     0
 42
3.5
  3
txt
  4

  0
ENDTAB
  0
TABLE
  2
VIEW
  5
6
330
0
100
AcDbSymbolTable
 70
     0
  0
ENDTAB
  0
TABLE
  2
UCS
  5
7
330
0
100
AcDbSymbolTable
 70
     0
  0
ENDTAB
  0
TABLE
  2
APPID
  5
9
330
0
100
AcDbSymbolTable
 70
     1
  0
APPID
  5
12
330
9
100
AcDbSymbolTableRecord
100
AcDbRegAppTableRecord
  2
ACAD
 70
     0
  0
ENDTAB
  0
TABLE
  2
DIMSTYLE
  5
A
330
0
100
AcDbSymbolTable
 70
     1
100
AcDbDimStyleTable
  0
DIMSTYLE
105
27
330
A
100
AcDbSymbolTableRecord
100
AcDbDimStyleTableRecord
  2
ISO-25
 70
     0
 41
2.5
 42
0.625
 43
3.75
 44
1.25
 73
     0
 74
     0
 77
     1
 78
     8
140
2.5
141
2.5
143
0.0393700787
147
0.625
171
     3
172
     1
178
     0
271
     2
272
     2
274
     3
278
    44
283
     0
284
     8
340
11
  0
ENDTAB
  0
TABLE
  2
BLOCK_RECORD
  5
1
330
0
100
AcDbSymbolTable
 70
     4
  0
BLOCK_RECORD
  5
1F
330
1
100
AcDbSymbolTableRecord
100
AcDbBlockTableRecord
  2
*Model_Space
340
22
  0
BLOCK_RECORD
  5
1B
330
1
100
AcDbSymbolTableRecord
100
AcDbBlockTableRecord
  2
*Paper_Space
340
1E
  0
BLOCK_RECORD
  5
23
330
1
100
AcDbSymbolTableRecord
100
AcDbBlockTableRecord
  2
*Paper_Space0
340
26
  0
BLOCK_RECORD
  5
8C
330
1
100
AcDbSymbolTableRecord
100
AcDbBlockTableRecord
  2
SW_CENTERMARKSYMBOL_0
340
0
102
{BLKREFS
331
97
102
}
  0
BLOCK_RECORD
  5
DE
330
1
100
AcDbSymbolTableRecord
100
AcDbBlockTableRecord
  2
SW_CENTERMARKSYMBOL_1
340
0
102
{BLKREFS
331
E9
102
}
  0
BLOCK_RECORD
  5
EA
330
1
100
AcDbSymbolTableRecord
100
AcDbBlockTableRecord
  2
SW_CENTERMARKSYMBOL_2
340
0
102
{BLKREFS
331
F5
102
}
  0
ENDTAB
  0
ENDSEC
  0
SECTION
  2
BLOCKS
  0
BLOCK
  5
20
330
1F
100
AcDbEntity
  8
0
100
AcDbBlockBegin
  2
*Model_Space
 70
     0
 10
0.0
 20
0.0
 30
0.0
  3
*Model_Space
  1

  0
ENDBLK
  5
21
330
1F
100
AcDbEntity
  8
0
100
AcDbBlockEnd
  0
BLOCK
  5
1C
330
1B
100
AcDbEntity
 67
     1
  8
0
100
AcDbBlockBegin
  2
*Paper_Space
 70
     0
 10
0.0
 20
0.0
 30
0.0
  3
*Paper_Space
  1

  0
ENDBLK
  5
1D
330
1B
100
AcDbEntity
 67
     1
  8
0
100
AcDbBlockEnd
  0
BLOCK
  5
24
330
23
100
AcDbEntity
  8
0
100
AcDbBlockBegin
  2
*Paper_Space0
 70
     0
 10
0.0
 20
0.0
 30
0.0
  3
*Paper_Space0
  1

  0
ENDBLK
  5
25
330
23
100
AcDbEntity
  8
0
100
AcDbBlockEnd
  0
BLOCK
  5
8D
330
8C
100
AcDbEntity
  8
0
100
AcDbBlockBegin
  2
SW_CENTERMARKSYMBOL_0
 70
     0
 10
0.0
 20
0.0
 30
0.0
  3
SW_CENTERMARKSYMBOL_0
  1

  0
LINE
  5
8F
330
8C
100
AcDbEntity
  8
FORMAT
 62
     0
100
AcDbLine
 10
0.0
 20
0.0
 30
0.0
 11
0.0
 21
2.5
 31
0.0
  0
LINE
  5
90
330
8C
100
AcDbEntity
  8
FORMAT
 62
     0
100
AcDbLine
 10
0.0
 20
0.0
 30
0.0
 11
-2.5
 21
0.0
 31
0.0
  0
LINE
  5
91
330
8C
100
AcDbEntity
  8
FORMAT
 62
     0
100
AcDbLine
 10
0.0
 20
0.0
 30
0.0
 11
0.0
 21
-2.5
 31
0.0
  0
LINE
  5
92
330
8C
100
AcDbEntity
  8
FORMAT
 62
     0
100
AcDbLine
 10
0.0
 20
0.0
 30
0.0
 11
2.5
 21
0.0
 31
0.0
  0
LINE
  5
93
330
8C
100
AcDbEntity
  8
FORMAT
 62
     0
100
AcDbLine
 10
0.0
 20
5.0
 30
0.0
 11
0.0
 21
128.25
 31
0.0
  0
LINE
  5
94
330
8C
100
AcDbEntity
  8
FORMAT
 62
     0
100
AcDbLine
 10
-5.0
 20
0.0
 30
0.0
 11
-128.25
 21
0.0
 31
0.0
  0
LINE
  5
95
330
8C
100
AcDbEntity
  8
FORMAT
 62
     0
100
AcDbLine
 10
0.0
 20
-5.0
 30
0.0
 11
0.0
 21
-128.25
 31
0.0
  0
LINE
  5
96
330
8C
100
AcDbEntity
  8
FORMAT
 62
     0
100
AcDbLine
 10
5.0
 20
0.0
 30
0.0
 11
128.25
 21
0.0
 31
0.0
  0
ENDBLK
  5
8E
330
8C
100
AcDbEntity
  8
0
100
AcDbBlockEnd
  0
BLOCK
  5
DF
330
DE
100
AcDbEntity
  8
0
100
AcDbBlockBegin
  2
SW_CENTERMARKSYMBOL_1
 70
     0
 10
0.0
 20
0.0
 30
0.0
  3
SW_CENTERMARKSYMBOL_1
  1

  0
LINE
  5
E1
330
DE
100
AcDbEntity
  8
FORMAT
 62
     0
100
AcDbLine
 10
0.0
 20
0.0
 30
0.0
 11
0.0
 21
2.5
 31
0.0
  0
LINE
  5
E2
330
DE
100
AcDbEntity
  8
FORMAT
 62
     0
100
AcDbLine
 10
0.0
 20
0.0
 30
0.0
 11
-2.5
 21
0.0
 31
0.0
  0
LINE
  5
E3
330
DE
100
AcDbEntity
  8
FORMAT
 62
     0
100
AcDbLine
 10
0.0
 20
0.0
 30
0.0
 11
0.0
 21
-2.5
 31
0.0
  0
LINE
  5
E4
330
DE
100
AcDbEntity
  8
FORMAT
 62
     0
100
AcDbLine
 10
0.0
 20
0.0
 30
0.0
 11
2.5
 21
0.0
 31
0.0
  0
LINE
  5
E5
330
DE
100
AcDbEntity
  8
FORMAT
 62
     0
100
AcDbLine
 10
0.0
 20
5.0
 30
0.0
 11
0.0
 21
9.5
 31
0.0
  0
LINE
  5
E6
330
DE
100
AcDbEntity
  8
FORMAT
 62
     0
100
AcDbLine
 10
-5.0
 20
0.0
 30
0.0
 11
-9.5
 21
0.0
 31
0.0
  0
LINE
  5
E7
330
DE
100
AcDbEntity
  8
FORMAT
 62
     0
100
AcDbLine
 10
0.0
 20
-5.0
 30
0.0
 11
0.0
 21
-9.5
 31
0.0
  0
LINE
  5
E8
330
DE
100
AcDbEntity
  8
FORMAT
 62
     0
100
AcDbLine
 10
5.0
 20
0.0
 30
0.0
 11
9.5
 21
0.0
 31
0.0
  0
ENDBLK
  5
E0
330
DE
100
AcDbEntity
  8
0
100
AcDbBlockEnd
  0
BLOCK
  5
EB
330
EA
100
AcDbEntity
  8
0
100
AcDbBlockBegin
  2
SW_CENTERMARKSYMBOL_2
 70
     0
 10
0.0
 20
0.0
 30
0.0
  3
SW_CENTERMARKSYMBOL_2
  1

  0
LINE
  5
ED
330
EA
100
AcDbEntity
  8
FORMAT
 62
     0
100
AcDbLine
 10
0.0
 20
0.0
 30
0.0
 11
0.0
 21
2.5
 31
0.0
  0
LINE
  5
EE
330
EA
100
AcDbEntity
  8
FORMAT
 62
     0
100
AcDbLine
 10
0.0
 20
0.0
 30
0.0
 11
-2.5
 21
0.0
 31
0.0
  0
LINE
  5
EF
330
EA
100
AcDbEntity
  8
FORMAT
 62
     0
100
AcDbLine
 10
0.0
 20
0.0
 30
0.0
 11
0.0
 21
-2.5
 31
0.0
  0
LINE
  5
F0
330
EA
100
AcDbEntity
  8
FORMAT
 62
     0
100
AcDbLine
 10
0.0
 20
0.0
 30
0.0
 11
2.5
 21
0.0
 31
0.0
  0
LINE
  5
F1
330
EA
100
AcDbEntity
  8
FORMAT
 62
     0
100
AcDbLine
 10
0.0
 20
5.0
 30
0.0
 11
0.0
 21
9.5
 31
0.0
  0
LINE
  5
F2
330
EA
100
AcDbEntity
  8
FORMAT
 62
     0
100
AcDbLine
 10
-5.0
 20
0.0
 30
0.0
 11
-9.5
 21
0.0
 31
0.0
  0
LINE
  5
F3
330
EA
100
AcDbEntity
  8
FORMAT
 62
     0
100
AcDbLine
 10
0.0
 20
-5.0
 30
0.0
 11
0.0
 21
-9.5
 31
0.0
  0
LINE
  5
F4
330
EA
100
AcDbEntity
  8
FORMAT
 62
     0
100
AcDbLine
 10
5.0
 20
0.0
 30
0.0
 11
9.5
 21
0.0
 31
0.0
  0
ENDBLK
  5
EC
330
EA
100
AcDbEntity
  8
0
100
AcDbBlockEnd
  0
ENDSEC
  0
SECTION
  2
ENTITIES
  0
LINE
  5
83
330
1F
100
AcDbEntity
  8
0
  6
Continuous
 62
     7
370
    25
100
AcDbLine
 10
149.9491444162
 20
234.837965419
 30
0.0
 11
149.9491444162
 21
249.1309342331
 31
0.0
  0
LINE
  5
84
330
1F
100
AcDbEntity
  8
0
  6
Continuous
 62
     7
370
    25
100
AcDbLine
 10
135.9491444162
 20
249.1309342331
 30
0.0
 11
135.9491444162
 21
234.838794585
 31
0.0
  0
CIRCLE
  5
85
330
1F
100
AcDbEntity
  8
0
  6
Continuous
 62
     7
370
    25
100
AcDbCircle
 10
142.9491444162
 20
91.7809342331
 30
0.0
 40
143.0
  0
ARC
  5
86
330
1F
100
AcDbEntity
  8
0
  6
Continuous
 62
     7
370
    25
100
AcDbCircle
 10
142.9491444162
 20
91.7809342331
 30
0.0
 40
144.0000000000001
100
AcDbArc
 50
92.7863095999
 51
180.0
  0
ARC
  5
87
330
1F
100
AcDbEntity
  8
0
  6
Continuous
 62
     7
370
    25
100
AcDbCircle
 10
142.9491444162
 20
91.7809342331
 30
0.0
 40
144.0000000000001
100
AcDbArc
 50
180.0
 51
87.2136904001
  0
SPLINE
  5
88
330
1F
100
AcDbEntity
  8
0
  6
Continuous
 62
     7
370
    25
100
AcDbSpline
210
0.0
220
0.0
230
1.0
 70
     8
 71
     3
 72
    14
 73
    10
 74
     0
 42
0.00000001
 43
0.00000001
 40
0.0
 40
0.0
 40
0.0
 40
0.0
 40
0.1561180318245173
 40
0.3122380164280931
 40
0.46831380881414
 40
0.6244128474958929
 40
0.7805704583632116
 40
0.9366782375311081
 40
0.9999999999999999
 40
0.9999999999999999
 40
0.9999999999999999
 40
0.9999999999999999
 10
146.8434774804008
 20
234.8472167381514
 30
0.0
 10
146.1465361273745
 20
234.8565050161084
 30
0.0
 10
144.7526447037352
 20
234.8750816882033
 30
0.0
 10
142.3401027138117
 20
234.881271879462
 30
0.0
 10
140.0313424477506
 20
234.8631532236355
 30
0.0
 10
138.0300042048156
 20
234.8310909092328
 30
0.0
 10
136.6330722661713
 20
234.8094799673956
 30
0.0
 10
135.9396650745212
 20
234.8089043153324
 30
0.0
 10
136.0212135758985
 20
234.8321007005362
 30
0.0
 10
136.0447463910126
 20
234.8387945849742
 30
0.0
  0
SPLINE
  5
89
330
1F
100
AcDbEntity
  8
0
  6
Continuous
 62
     7
370
    25
100
AcDbSpline
210
0.0
220
0.0
230
1.0
 70
     8
 71
     3
 72
    11
 73
     7
 74
     0
 42
0.00000001
 43
0.00000001
 40
0.0
 40
0.0
 40
0.0
 40
0.0
 40
0.0950086103741002
 40
0.4386573038553002
 40
0.7821517993154592
 40
1.0
 40
1.0
 40
1.0
 40
1.0
 10
149.8697298389559
 20
234.8379654189938
 30
0.0
 10
149.8930552849408
 20
234.8330826138443
 30
0.0
 10
150.0007494950408
 20
234.810538571429
 30
0.0
 10
149.3896013329684
 20
234.8085518732358
 30
0.0
 10
148.2636090232406
 20
234.8247924174054
 30
0.0
 10
147.2405215200603
 20
234.8409472887187
 30
0.0
 10
146.8434774804008
 20
234.8472167381514
 30
0.0
  0
CIRCLE
  5
8A
330
1F
100
AcDbEntity
  8
0
  6
Continuous
 62
     7
370
    25
100
AcDbCircle
 10
142.9491444162
 20
91.7809342331
 30
0.0
 40
125.75
  0
LINE
  5
8B
330
1F
100
AcDbEntity
  8
0
  6
Continuous
 62
     7
370
    25
100
AcDbLine
 10
149.9491444162
 20
249.1309342331
 30
0.0
 11
135.9491444162
 21
249.1309342331
 31
0.0
  0
INSERT
  5
97
330
1F
100
AcDbEntity
  8
FORMAT
 62
     7
100
AcDbBlockReference
  2
SW_CENTERMARKSYMBOL_0
 10
142.9491444162
 20
91.7809342331
 30
0.0
  0
LINE
  5
98
330
1F
100
AcDbEntity
  8
0
  6
Continuous
 62
     7
370
    25
100
AcDbLine
 10
468.7158817295
 20
234.8785424566
 30
0.0
 11
463.6856184062
 21
234.7809342331
 31
0.0
  0
ARC
  5
99
330
1F
100
AcDbEntity
  8
0
  6
Continuous
 62
     7
370
    25
100
AcDbCircle
 10
564.1856184062
 20
-4814.844065767
 30
0.0
 40
5050.625000000027
100
AcDbArc
 50
90.0
 51
90.9254143529
  0
ARC
  5
9A
330
1F
100
AcDbEntity
  8
0
  6
Continuous
 62
     7
370
    25
100
AcDbCircle
 10
564.1856184062
 20
4998.4059342331
 30
0.0
 40
5050.625000000027
100
AcDbArc
 50
268.85982311
 51
270.0
  0
LINE
  5
9B
330
1F
100
AcDbEntity
  8
0
  6
Continuous
 62
     7
370
    25
100
AcDbLine
 10
564.1856184062
 20
-52.2190657669
 30
0.0
 11
589.1856184062
 21
-52.2190657669
 31
0.0
  0
LINE
  5
9C
330
1F
100
AcDbEntity
  8
0
  6
Continuous
 62
     7
370
    25
100
AcDbLine
 10
589.1856184062
 20
235.7809342331
 30
0.0
 11
564.1856184062
 21
235.7809342331
 31
0.0
  0
ARC
  5
9D
330
1F
100
AcDbEntity
  8
0
  6
Continuous
 62
     7
370
    25
100
AcDbCircle
 10
589.1856184062
 20
-4814.844065767
 30
0.0
 40
5050.625000000026
100
AcDbArc
 50
89.0751305003
 51
90.0
  0
ARC
  5
9E
330
1F
100
AcDbEntity
  8
0
  6
Continuous
 62
     7
370
    25
100
AcDbCircle
 10
589.1856184062
 20
-4814.844065767
 30
0.0
 40
5050.625000000027
100
AcDbArc
 50
88.85982311
 51
88.9174066889
  0
ARC
  5
9F
330
1F
100
AcDbEntity
  8
0
  6
Continuous
 62
     7
370
    25
100
AcDbCircle
 10
589.1856184062
 20
4998.4059342331
 30
0.0
 40
5050.625000000027
100
AcDbArc
 50
270.0
 51
271.14017689
  0
LINE
  5
A0
330
1F
100
AcDbEntity
  8
0
  6
Continuous
 62
     7
370
    25
100
AcDbLine
 10
482.6856184062
 20
235.11874872
 30
0.0
 11
482.6856184062
 21
249.1309342331
 31
0.0
  0
LINE
  5
A1
330
1F
100
AcDbEntity
  8
0
  6
Continuous
 62
     7
370
    25
100
AcDbLine
 10
468.6856184062
 20
249.1309342331
 30
0.0
 11
468.6856184062
 21
234.8771162011
 31
0.0
  0
LINE
  5
A2
330
1F
100
AcDbEntity
  8
0
  6
Continuous
 62
     7
370
    25
100
AcDbLine
 10
684.6856184062
 20
234.87578159
 30
0.0
 11
684.6856184062
 21
249.1309342331
 31
0.0
  0
LINE
  5
A3
330
1F
100
AcDbEntity
  8
0
  6
Continuous
 62
     7
370
    25
100
AcDbLine
 10
670.6856184062
 20
249.1309342331
 30
0.0
 11
670.6856184062
 21
235.1218387424
 31
0.0
  0
LINE
  5
A4
330
1F
100
AcDbEntity
  8
0
  6
Continuous
 62
     7
370
    25
100
AcDbLine
 10
463.6856184062
 20
91.7809342331
 30
0.0
 11
463.6856184062
 21
234.7809342331
 31
0.0
  0
LINE
  5
A5
330
1F
100
AcDbEntity
  8
0
  6
Continuous
 62
     7
370
    25
100
AcDbLine
 10
463.6856184062
 20
-51.2190657669
 30
0.0
 11
463.6856184062
 21
91.7809342331
 31
0.0
  0
SPLINE
  5
A6
330
1F
100
AcDbEntity
  8
0
  6
Continuous
 62
     7
370
    25
100
AcDbSpline
210
0.0
220
0.0
230
1.0
 70
     8
 71
     3
 72
    18
 73
    14
 74
     0
 42
0.00000001
 43
0.00000001
 40
0.0
 40
0.0
 40
0.0
 40
0.0
 40
0.0254529523738902
 40
0.1325724696295684
 40
0.2397415072777905
 40
0.3471076753744936
 40
0.4545738200605116
 40
0.5619450378760802
 40
0.6691840787579683
 40
0.7764189247769226
 40
0.8837331860371156
 40
0.991070604875513
 40
1.0
 40
1.0
 40
1.0
 40
1.0
 10
482.6139477975179
 20
235.1187116974182
 30
0.0
 10
482.6358305167149
 20
235.1201192431938
 30
0.0
 10
482.7498073192307
 20
235.1274504877914
 30
0.0
 10
482.1699681105125
 20
235.08965722164
 30
0.0
 10
480.9016611225142
 20
235.0153073280161
 30
0.0
 10
478.9813357479482
 20
234.9238480915917
 30
0.0
 10
476.705044182066
 20
234.8493444966277
 30
0.0
 10
474.3075978489014
 20
234.8103271073676
 30
0.0
 10
472.0741751921105
 20
234.8103633201939
 30
0.0
 10
470.2253532523595
 20
234.837285652745
 30
0.0
 10
469.0741288063992
 20
234.866025188431
 30
0.0
 10
468.5765969668103
 20
234.8811251682559
 30
0.0
 10
468.705845319626
 20
234.8773840861659
 30
0.0
 10
468.7157717085253
 20
234.8770967677211
 30
0.0
  0
LINE
  5
A7
330
1F
100
AcDbEntity
  8
0
  6
Continuous
 62
     7
370
    25
100
AcDbLine
 10
689.6856184062
 20
91.7809342331
 30
0.0
 11
689.6856184062
 21
234.7809342331
 31
0.0
  0
LINE
  5
A8
330
1F
100
AcDbEntity
  8
0
  6
Continuous
 62
     7
370
    25
100
AcDbLine
 10
689.6856184062
 20
-51.2190657669
 30
0.0
 11
689.6856184062
 21
91.7809342331
 31
0.0
  0
SPLINE
  5
A9
330
1F
100
AcDbEntity
  8
0
  6
Continuous
 62
     7
370
    25
100
AcDbSpline
210
0.0
220
0.0
230
1.0
 70
     8
 71
     3
 72
    18
 73
    14
 74
     0
 42
0.00000001
 43
0.00000001
 40
0.0
 40
0.0
 40
0.0
 40
0.0
 40
0.0271505656227605
 40
0.1344371716598118
 40
0.2417397572163716
 40
0.3490826053332007
 40
0.4563911991058915
 40
0.5636220511094033
 40
0.6708743125059432
 40
0.778265934951569
 40
0.8857345264183345
 40
0.9930811927174441
 40
1.0
 40
1.0
 40
1.0
 40
1.0
 10
684.6106601163791
 20
234.8757650129671
 30
0.0
 10
684.6332761462086
 20
234.8764295072956
 30
0.0
 10
684.7452603724931
 20
234.8797197790105
 30
0.0
 10
684.1545388077923
 20
234.8618909137781
 30
0.0
 10
682.8711528158325
 20
234.8317799273964
 30
0.0
 10
680.9408175481343
 20
234.8079864326653
 30
0.0
 10
678.6609974598222
 20
234.8140437786424
 30
0.0
 10
676.2663999182167
 20
234.8598327455083
 30
0.0
 10
674.0392037555412
 20
234.9385763413425
 30
0.0
 10
672.1979773642494
 20
235.0303022707218
 30
0.0
 10
671.060503028269
 20
235.0986778107553
 30
0.0
 10
670.5716627635546
 20
235.1306012541952
 30
0.0
 10
670.701548115884
 20
235.1223065531175
 30
0.0
 10
670.7094127113162
 20
235.121804306582
 30
0.0
  0
LINE
  5
AA
330
1F
100
AcDbEntity
  8
0
  6
Continuous
 62
     7
370
    25
100
AcDbLine
 10
482.6856184062
 20
249.1309342331
 30
0.0
 11
468.6856184062
 21
249.1309342331
 31
0.0
  0
LINE
  5
AB
330
1F
100
AcDbEntity
  8
0
  6
Continuous
 62
     7
370
    25
100
AcDbLine
 10
684.6856184062
 20
249.1309342331
 30
0.0
 11
670.6856184062
 21
249.1309342331
 31
0.0
  0
LINE
  5
AC
330
1F
100
AcDbEntity
  8
0
  6
Continuous
 62
     1
370
    25
100
AcDbLine
 10
564.1856184062
 20
91.7809342331
 30
0.0
 11
564.1856184062
 21
235.7809342331
 31
0.0
  0
LINE
  5
AD
330
1F
100
AcDbEntity
  8
0
  6
Continuous
 62
     1
370
    25
100
AcDbLine
 10
564.1856184062
 20
-52.2190657669
 30
0.0
 11
564.1856184062
 21
91.7809342331
 31
0.0
  0
LINE
  5
AE
330
1F
100
AcDbEntity
  8
0
  6
Continuous
 62
     1
370
    25
100
AcDbLine
 10
589.1856184062
 20
91.7809342331
 30
0.0
 11
589.1856184062
 21
235.7809342331
 31
0.0
  0
LINE
  5
AF
330
1F
100
AcDbEntity
  8
0
  6
Continuous
 62
     1
370
    25
100
AcDbLine
 10
589.1856184062
 20
-52.2190657669
 30
0.0
 11
589.1856184062
 21
91.7809342331
 31
0.0
  0
ARC
  5
B0
330
1F
100
AcDbEntity
  8
0
  6
Continuous
 62
     7
370
    25
100
AcDbCircle
 10
5049.5741444162
 20
513.6643772246
 30
0.0
 40
5050.625000000026
100
AcDbArc
 50
180.0
 51
181.14017689
  0
ARC
  5
B1
330
1F
100
AcDbEntity
  8
0
  6
Continuous
 62
     7
370
    25
100
AcDbCircle
 10
-4763.6758555839
 20
513.6643772246
 30
0.0
 40
5050.625000000027
100
AcDbArc
 50
358.85982311
 51
0.0
  0
LINE
  5
B2
330
1F
100
AcDbEntity
  8
0
  6
Continuous
 62
     7
370
    25
100
AcDbLine
 10
286.9491444162
 20
513.6643772246
 30
0.0
 11
286.9491444162
 21
538.6643772246
 31
0.0
  0
LINE
  5
B3
330
1F
100
AcDbEntity
  8
0
  6
Continuous
 62
     7
370
    25
100
AcDbLine
 10
-1.0508555838
 20
538.6643772246
 30
0.0
 11
-1.0508555838
 21
513.6643772246
 31
0.0
  0
ARC
  5
B4
330
1F
100
AcDbEntity
  8
0
  6
Continuous
 62
     7
370
    25
100
AcDbCircle
 10
5049.5741444162
 20
538.6643772246
 30
0.0
 40
5050.625000000026
100
AcDbArc
 50
178.85982311
 51
180.0
  0
ARC
  5
B5
330
1F
100
AcDbEntity
  8
0
  6
Continuous
 62
     7
370
    25
100
AcDbCircle
 10
-4763.6758555839
 20
538.6643772246
 30
0.0
 40
5050.625000000027
100
AcDbArc
 50
0.0
 51
1.14017689
  0
LINE
  5
B6
330
1F
100
AcDbEntity
  8
0
  6
Continuous
 62
     7
370
    25
100
AcDbLine
 10
285.9491444162
 20
413.1643772246
 30
0.0
 11
-0.0508555838
 21
413.1643772246
 31
0.0
  0
LINE
  5
B7
330
1F
100
AcDbEntity
  8
0
  6
Continuous
 62
     7
370
    25
100
AcDbLine
 10
285.9491444162
 20
639.1643772246
 30
0.0
 11
-0.0508555838
 21
639.1643772246
 31
0.0
  0
LINE
  5
B8
330
1F
100
AcDbEntity
  8
0
  6
Continuous
 62
     1
370
    25
100
AcDbLine
 10
286.9491444162
 20
513.6643772246
 30
0.0
 11
-1.0508555838
 21
513.6643772246
 31
0.0
  0
LINE
  5
B9
330
1F
100
AcDbEntity
  8
0
  6
Continuous
 62
     1
370
    25
100
AcDbLine
 10
286.9491444162
 20
538.6643772246
 30
0.0
 11
-1.0508555838
 21
538.6643772246
 31
0.0
  0
ARC
  5
BA
330
1F
100
AcDbEntity
  8
0
  6
Continuous
 62
     7
370
    25
100
AcDbCircle
 10
-278.6216112992
 20
4998.4059342331
 30
0.0
 40
5050.625000000027
100
AcDbArc
 50
270.0
 51
271.14017689
  0
ARC
  5
BB
330
1F
100
AcDbEntity
  8
0
  6
Continuous
 62
     7
370
    25
100
AcDbCircle
 10
-278.6216112992
 20
-4814.844065767
 30
0.0
 40
5050.625000000027
100
AcDbArc
 50
89.0745866923
 51
90.0
  0
LINE
  5
BC
330
1F
100
AcDbEntity
  8
0
  6
Continuous
 62
     7
370
    25
100
AcDbLine
 10
-178.1216112992
 20
234.7809342331
 30
0.0
 11
-183.1519359953
 21
234.8785436169
 31
0.0
  0
LINE
  5
BD
330
1F
100
AcDbEntity
  8
0
  6
Continuous
 62
     7
370
    25
100
AcDbLine
 10
-278.6216112992
 20
235.7809342331
 30
0.0
 11
-303.6216112992
 21
235.7809342331
 31
0.0
  0
LINE
  5
BE
330
1F
100
AcDbEntity
  8
0
  6
Continuous
 62
     7
370
    25
100
AcDbLine
 10
-303.6216112992
 20
-52.2190657669
 30
0.0
 11
-278.6216112992
 21
-52.2190657669
 31
0.0
  0
ARC
  5
BF
330
1F
100
AcDbEntity
  8
0
  6
Continuous
 62
     7
370
    25
100
AcDbCircle
 10
-303.6216112992
 20
4998.4059342331
 30
0.0
 40
5050.625000000027
100
AcDbArc
 50
268.85982311
 51
270.0
  0
ARC
  5
C0
330
1F
100
AcDbEntity
  8
0
  6
Continuous
 62
     7
370
    25
100
AcDbCircle
 10
-303.6216112992
 20
-4814.844065767
 30
0.0
 40
5050.625000000027
100
AcDbArc
 50
91.0825937591
 51
91.14017689
  0
ARC
  5
C1
330
1F
100
AcDbEntity
  8
0
  6
Continuous
 62
     7
370
    25
100
AcDbCircle
 10
-303.6216112992
 20
-4814.844065767
 30
0.0
 40
5050.625000000027
100
AcDbArc
 50
90.0
 51
90.9248709251
  0
LINE
  5
C2
330
1F
100
AcDbEntity
  8
0
  6
Continuous
 62
     7
370
    25
100
AcDbLine
 10
-183.1216112992
 20
234.8771162011
 30
0.0
 11
-183.1216112992
 21
249.1309342331
 31
0.0
  0
LINE
  5
C3
330
1F
100
AcDbEntity
  8
0
  6
Continuous
 62
     7
370
    25
100
AcDbLine
 10
-197.1216112992
 20
249.1309342331
 30
0.0
 11
-197.1216112992
 21
235.11874872
 31
0.0
  0
LINE
  5
C4
330
1F
100
AcDbEntity
  8
0
  6
Continuous
 62
     7
370
    25
100
AcDbLine
 10
-385.1216112992
 20
235.1218387424
 30
0.0
 11
-385.1216112992
 21
249.1309342331
 31
0.0
  0
LINE
  5
C5
330
1F
100
AcDbEntity
  8
0
  6
Continuous
 62
     7
370
    25
100
AcDbLine
 10
-399.1216112992
 20
249.1309342331
 30
0.0
 11
-399.1216112992
 21
234.87578159
 31
0.0
  0
LINE
  5
C6
330
1F
100
AcDbEntity
  8
0
  6
Continuous
 62
     7
370
    25
100
AcDbLine
 10
-178.1216112992
 20
234.7809342331
 30
0.0
 11
-178.1216112992
 21
-51.2190657669
 31
0.0
  0
SPLINE
  5
C7
330
1F
100
AcDbEntity
  8
0
  6
Continuous
 62
     7
370
    25
100
AcDbSpline
210
0.0
220
0.0
230
1.0
 70
     8
 71
     3
 72
     9
 73
     5
 74
     0
 42
0.00000001
 43
0.00000001
 40
0.0
 40
0.0
 40
0.0
 40
0.0
 40
0.5673206929854828
 40
1.0
 40
1.0
 40
1.0
 40
1.0
 10
-195.9200840151733
 20
235.0501330479701
 30
0.0
 10
-196.3155390580143
 20
235.0738348164374
 30
0.0
 10
-197.0125963797911
 20
235.1156132475088
 30
0.0
 10
-197.0386617840522
 20
235.11777590127
 30
0.0
 10
-197.049939745105
 20
235.1187116368007
 30
0.0
  0
SPLINE
  5
C8
330
1F
100
AcDbEntity
  8
0
  6
Continuous
 62
     7
370
    25
100
AcDbSpline
210
0.0
220
0.0
230
1.0
 70
     8
 71
     3
 72
    15
 73
    11
 74
     0
 42
0.00000001
 43
0.00000001
 40
0.0
 40
0.0
 40
0.0
 40
0.0
 40
0.1213525761140999
 40
0.2537294455684766
 40
0.386160875185662
 40
0.5185877955001718
 40
0.6509189430738618
 40
0.7832197281994331
 40
0.9156597407262573
 40
1.0
 40
1.0
 40
1.0
 40
1.0
 10
-183.1518043668001
 20
234.8770956198196
 30
0.0
 10
-183.204813836818
 20
234.8754196344195
 30
0.0
 10
-183.3156484302663
 20
234.8719154084694
 30
0.0
 10
-184.4408571196358
 20
234.8418797326038
 30
0.0
 10
-186.1700574039886
 20
234.8136075855894
 30
0.0
 10
-188.3623355151097
 20
234.8077865754429
 30
0.0
 10
-190.7496411295068
 20
234.8402507430121
 30
0.0
 10
-193.05644410501
 20
234.9096515804329
 30
0.0
 10
-194.8271154211694
 20
234.989646883341
 30
0.0
 10
-195.6139565841825
 20
235.0331915966878
 30
0.0
 10
-195.9200840151733
 20
235.0501330479701
 30
0.0
  0
LINE
  5
C9
330
1F
100
AcDbEntity
  8
0
  6
Continuous
 62
     7
370
    25
100
AcDbLine
 10
-404.1216112992
 20
234.7809342331
 30
0.0
 11
-404.1216112992
 21
-51.2190657669
 31
0.0
  0
SPLINE
  5
CA
330
1F
100
AcDbEntity
  8
0
  6
Continuous
 62
     7
370
    25
100
AcDbSpline
210
0.0
220
0.0
230
1.0
 70
     8
 71
     3
 72
     9
 73
     5
 74
     0
 42
0.00000001
 43
0.00000001
 40
0.0
 40
0.0
 40
0.0
 40
0.0
 40
0.5723813954193269
 40
1.0
 40
1.0
 40
1.0
 40
1.0
 10
-397.9383260063523
 20
234.8472167381514
 30
0.0
 10
-398.3315457379944
 20
234.8570659327651
 30
0.0
 10
-399.0185347540403
 20
234.8742733310008
 30
0.0
 10
-399.0382405589601
 20
234.8753184937272
 30
0.0
 10
-399.0466671277621
 20
234.8757654247538
 30
0.0
  0
SPLINE
  5
CB
330
1F
100
AcDbEntity
  8
0
  6
Continuous
 62
     7
370
    25
100
AcDbSpline
210
0.0
220
0.0
230
1.0
 70
     8
 71
     3
 72
    15
 73
    11
 74
     0
 42
0.00000001
 43
0.00000001
 40
0.0
 40
0.0
 40
0.0
 40
0.0
 40
0.123434819226307
 40
0.255362872582385
 40
0.3875081277265812
 40
0.5198401991986762
 40
0.6521180263289275
 40
0.7842178309327523
 40
0.9162583612578262
 40
1.0
 40
1.0
 40
1.0
 40
1.0
 10
-385.1454045458123
 20
235.1218043741156
 30
0.0
 10
-385.203421027443
 20
235.1179458357665
 30
0.0
 10
-385.3234459563828
 20
235.1099632629156
 30
0.0
 10
-386.4634596712661
 20
235.0397944621742
 30
0.0
 10
-388.1999960279282
 20
234.9508847860819
 30
0.0
 10
-390.397372891648
 20
234.8684714775457
 30
0.0
 10
-392.7880024005456
 20
234.8176950049825
 30
0.0
 10
-395.0931062510804
 20
234.8067877505854
 30
0.0
 10
-396.8555515191442
 20
234.8250512045233
 30
0.0
 10
-397.6356011224436
 20
234.8410196410887
 30
0.0
 10
-397.9383260063523
 20
234.8472167381514
 30
0.0
  0
LINE
  5
CC
330
1F
100
AcDbEntity
  8
0
  6
Continuous
 62
     7
370
    25
100
AcDbLine
 10
-183.1216112992
 20
249.1309342331
 30
0.0
 11
-197.1216112992
 21
249.1309342331
 31
0.0
  0
LINE
  5
CD
330
1F
100
AcDbEntity
  8
0
  6
Continuous
 62
     7
370
    25
100
AcDbLine
 10
-385.1216112992
 20
249.1309342331
 30
0.0
 11
-399.1216112992
 21
249.1309342331
 31
0.0
  0
LINE
  5
CE
330
1F
100
AcDbEntity
  8
0
  6
Continuous
 62
     1
370
    25
100
AcDbLine
 10
-278.6216112992
 20
235.7809342331
 30
0.0
 11
-278.6216112992
 21
-52.2190657669
 31
0.0
  0
LINE
  5
CF
330
1F
100
AcDbEntity
  8
0
  6
Continuous
 62
     1
370
    25
100
AcDbLine
 10
-303.6216112992
 20
235.7809342331
 30
0.0
 11
-303.6216112992
 21
-52.2190657669
 31
0.0
  0
ARC
  5
D0
330
1F
100
AcDbEntity
  8
0
  6
Continuous
 62
     7
370
    25
100
AcDbCircle
 10
-4763.6758555839
 20
-308.8342350501
 30
0.0
 40
5050.625000000027
100
AcDbArc
 50
0.0
 51
1.14017689
  0
ARC
  5
D1
330
1F
100
AcDbEntity
  8
0
  6
Continuous
 62
     7
370
    25
100
AcDbCircle
 10
5049.5741444162
 20
-308.8342350501
 30
0.0
 40
5050.625000000026
100
AcDbArc
 50
178.85982311
 51
180.0
  0
LINE
  5
D2
330
1F
100
AcDbEntity
  8
0
  6
Continuous
 62
     7
370
    25
100
AcDbLine
 10
-1.0508555838
 20
-308.8342350501
 30
0.0
 11
-1.0508555838
 21
-333.8342350501
 31
0.0
  0
LINE
  5
D3
330
1F
100
AcDbEntity
  8
0
  6
Continuous
 62
     7
370
    25
100
AcDbLine
 10
286.9491444162
 20
-333.8342350501
 30
0.0
 11
286.9491444162
 21
-308.8342350501
 31
0.0
  0
ARC
  5
D4
330
1F
100
AcDbEntity
  8
0
  6
Continuous
 62
     7
370
    25
100
AcDbCircle
 10
-4763.6758555839
 20
-333.8342350501
 30
0.0
 40
5050.625000000027
100
AcDbArc
 50
358.85982311
 51
0.0
  0
ARC
  5
D5
330
1F
100
AcDbEntity
  8
0
  6
Continuous
 62
     7
370
    25
100
AcDbCircle
 10
5049.5741444162
 20
-333.8342350501
 30
0.0
 40
5050.625000000026
100
AcDbArc
 50
180.0
 51
181.14017689
  0
CIRCLE
  5
D6
330
1F
100
AcDbEntity
  8
0
  6
Continuous
 62
     7
370
    25
100
AcDbCircle
 10
142.9491444162
 20
-220.3342350501
 30
0.0
 40
5.0
  0
CIRCLE
  5
D7
330
1F
100
AcDbEntity
  8
0
  6
Continuous
 62
     7
370
    25
100
AcDbCircle
 10
142.9491444162
 20
-220.3342350501
 30
0.0
 40
7.0
  0
CIRCLE
  5
D8
330
1F
100
AcDbEntity
  8
0
  6
Continuous
 62
     7
370
    25
100
AcDbCircle
 10
142.9491444162
 20
-422.3342350501
 30
0.0
 40
7.000000000000057
  0
CIRCLE
  5
D9
330
1F
100
AcDbEntity
  8
0
  6
Continuous
 62
     7
370
    25
100
AcDbCircle
 10
142.9491444162
 20
-422.3342350501
 30
0.0
 40
5.000000000000057
  0
LINE
  5
DA
330
1F
100
AcDbEntity
  8
0
  6
Continuous
 62
     7
370
    25
100
AcDbLine
 10
-0.0508555838
 20
-208.3342350501
 30
0.0
 11
285.9491444162
 21
-208.3342350501
 31
0.0
  0
LINE
  5
DB
330
1F
100
AcDbEntity
  8
0
  6
Continuous
 62
     7
370
    25
100
AcDbLine
 10
-0.0508555838
 20
-434.3342350501
 30
0.0
 11
285.9491444162
 21
-434.3342350501
 31
0.0
  0
LINE
  5
DC
330
1F
100
AcDbEntity
  8
0
  6
Continuous
 62
     1
370
    25
100
AcDbLine
 10
-1.0508555838
 20
-308.8342350501
 30
0.0
 11
286.9491444162
 21
-308.8342350501
 31
0.0
  0
LINE
  5
DD
330
1F
100
AcDbEntity
  8
0
  6
Continuous
 62
     1
370
    25
100
AcDbLine
 10
-1.0508555838
 20
-333.8342350501
 30
0.0
 11
286.9491444162
 21
-333.8342350501
 31
0.0
  0
INSERT
  5
E9
330
1F
100
AcDbEntity
  8
FORMAT
 62
     7
100
AcDbBlockReference
  2
SW_CENTERMARKSYMBOL_1
 10
142.9491444162
 20
-220.3342350501
 30
0.0
  0
INSERT
  5
F5
330
1F
100
AcDbEntity
  8
FORMAT
 62
     7
100
AcDbBlockReference
  2
SW_CENTERMARKSYMBOL_2
 10
142.9491444162
 20
-422.3342350501
 30
0.0
  0
SPLINE
  5
F6
330
1F
100
AcDbEntity
  8
0
  6
Continuous
 62
     7
370
    25
100
AcDbSpline
210
0.0
220
0.0
230
1.0
 70
     8
 71
     3
 72
    10
 73
     6
 74
     0
 42
0.00000001
 43
0.00000001
 40
0.0
 40
0.0
 40
0.0
 40
0.0
 40
0.3169660372261735
 40
0.6963578282356967
 40
1.0
 40
1.0
 40
1.0
 40
1.0
 10
516.9305271094055
 20
-199.2418473116792
 30
0.0
 10
509.3210274010096
 20
-203.6495094789082
 30
0.0
 10
492.6033539957748
 20
-213.3329130423575
 30
0.0
 10
468.7481625614844
 20
-227.498140711401
 30
0.0
 10
452.56354594959
 20
-237.3491244957963
 30
0.0
 10
445.3686882923648
 20
-241.7283710242726
 30
0.0
  0
SPLINE
  5
F7
330
1F
100
AcDbEntity
  8
0
  6
Continuous
 62
     7
370
    25
100
AcDbSpline
210
0.0
220
0.0
230
1.0
 70
     8
 71
     3
 72
    11
 73
     7
 74
     0
 42
0.00000001
 43
0.00000001
 40
0.0
 40
0.0
 40
0.0
 40
0.0
 40
0.1785722503083669
 40
0.5580579160471566
 40
0.9375245067203959
 40
1.0
 40
1.0
 40
1.0
 40
1.0
 10
588.3121124869141
 20
-489.3426023052733
 30
0.0
 10
592.6649967008121
 20
-486.9785482777073
 30
0.0
 10
606.2682384643438
 20
-479.5906195162778
 30
0.0
 10
628.9635172672671
 20
-466.8834658076688
 30
0.0
 10
648.8050202698975
 20
-455.6706102169998
 30
0.0
 10
659.4012355157545
 20
-449.5010417122887
 30
0.0
 10
660.8991778896977
 20
-448.6288757664557
 30
0.0
  0
LINE
  5
F8
330
1F
100
AcDbEntity
  8
0
  6
Continuous
 62
     7
370
    25
100
AcDbLine
 10
534.5983582558
 20
-189.0192326937
 30
0.0
 11
516.9206887261
 21
-199.2243340915
 31
0.0
  0
LINE
  5
F9
330
1F
100
AcDbEntity
  8
0
  6
Continuous
 62
     7
370
    25
100
AcDbLine
 10
660.9089862257
 20
-448.6464064571
 30
0.0
 11
678.5866557554
 21
-438.4413050593
 31
0.0
  0
SPLINE
  5
FA
330
1F
100
AcDbEntity
  8
0
  6
Continuous
 62
     7
370
    25
100
AcDbSpline
210
0.0
220
0.0
230
1.0
 70
     8
 71
     3
 72
    11
 73
     7
 74
     0
 42
0.00000001
 43
0.00000001
 40
0.0
 40
0.0
 40
0.0
 40
0.0
 40
0.1785719838560925
 40
0.5580579656096297
 40
0.9375248722825351
 40
1.0
 40
1.0
 40
1.0
 40
1.0
 10
607.1952016571527
 20
-148.3230533757789
 30
0.0
 10
602.8423275675361
 20
-150.6871019155107
 30
0.0
 10
589.2390959376299
 20
-158.0750252067045
 30
0.0
 10
566.5438272411155
 20
-170.7821733913867
 30
0.0
 10
546.7023342577928
 20
-181.9950231632443
 30
0.0
 10
536.1061290036328
 20
-188.1645858026899
 30
0.0
 10
534.6081966390699
 20
-189.0367459138953
 30
0.0
  0
SPLINE
  5
FB
330
1F
100
AcDbEntity
  8
0
  6
Continuous
 62
     7
370
    25
100
AcDbSpline
210
0.0
220
0.0
230
1.0
 70
     8
 71
     3
 72
    10
 73
     6
 74
     0
 42
0.00000001
 43
0.00000001
 40
0.0
 40
0.0
 40
0.0
 40
0.0
 40
0.3169652812236644
 40
0.6963566671822207
 40
1.0
 40
1.0
 40
1.0
 40
1.0
 10
678.5768474193635
 20
-438.4237743686708
 30
0.0
 10
686.1863371024676
 20
-434.0161180082213
 30
0.0
 10
702.9040004825928
 20
-424.3327202512244
 30
0.0
 10
726.7592172739647
 20
-410.167477277299
 30
0.0
 10
742.9438690403758
 20
-400.3164720108203
 30
0.0
 10
750.1387618734258
 20
-395.937204034402
 30
0.0
  0
LINE
  5
FC
330
1F
100
AcDbEntity
  8
0
  6
Continuous
 62
     7
370
    25
100
AcDbLine
 10
533.3358873409
 20
-243.1144324238
 30
0.0
 11
533.3358873409
 21
-231.5787324722
 31
0.0
  0
LINE
  5
FD
330
1F
100
AcDbEntity
  8
0
  6
Continuous
 62
     7
370
    25
100
AcDbLine
 10
519.3358873409
 20
-231.5787324722
 30
0.0
 11
519.3358873409
 21
-243.2549656303
 31
0.0
  0
LINE
  5
FE
330
1F
100
AcDbEntity
  8
0
  6
Continuous
 62
     7
370
    25
100
AcDbLine
 10
676.1714571406
 20
-160.7971109487
 30
0.0
 11
676.1714571406
 21
-149.1215131781
 31
0.0
  0
LINE
  5
FF
330
1F
100
AcDbEntity
  8
0
  6
Continuous
 62
     7
370
    25
100
AcDbLine
 10
662.1714571406
 20
-149.1215131781
 30
0.0
 11
662.1714571406
 21
-160.6565074899
 31
0.0
  0
LWPOLYLINE
  5
100
330
1F
100
AcDbEntity
  8
0
  6
Continuous
 62
     7
370
    25
100
AcDbPolyline
 90
      133
 70
   128
 43
0.0
 10
416.734336257
 20
-306.586697898
 10
416.8488666936
 20
-301.0968965184
 10
417.1921985553
 20
-295.751765332
 10
417.763554085
 20
-290.5634127803
 10
418.5616389786
 20
-285.5435921505
 10
419.5846453171
 20
-280.7036749508
 10
420.8302556621
 20
-276.0546251505
 10
422.2956483056
 20
-271.6069743426
 10
423.977503662
 20
-267.3707978867
 10
425.8720117878
 20
-263.355692085
 10
427.9748810129
 20
-259.5707524435
 10
430.2813476621
 20
-256.0245530679
 10
432.7861868467
 20
-252.7251272403
 10
435.4837243001
 20
-249.6799492215
 10
438.3678492325
 20
-246.895917319
 10
441.4320281733
 20
-244.3793382606
 10
444.6693197715
 20
-242.1359129073
 10
448.0723905206
 20
-240.170723339
 10
451.6335313708
 20
-238.4882213423
 10
455.3446751925
 20
-237.0922183252
 10
459.1974150515
 20
-235.9858766836
 10
463.1830232527
 20
-235.1717026371
 10
467.2924711118
 20
-234.651540552
 10
471.5164494075
 20
-234.4265687625
 10
475.8453894705
 20
-234.4972969021
 10
480.2694848591
 20
-234.8635647488
 10
484.7787135744
 20
-235.5245425883
 10
489.3628607631
 20
-236.478733093
 10
494.0115418572
 20
-237.7239747145
 10
498.714226099
 20
-239.2574465802
 10
503.4602603961
 20
-241.075674883
 10
508.2388934544
 20
-243.1745407509
 10
513.0393001329
 20
-245.5492895778
 10
517.8506059666
 20
-248.1945417937
 10
522.6619118004
 20
-251.1043050516
 10
527.4623184789
 20
-254.2719878018
 10
532.2409515372
 20
-257.690414224
 10
536.9869858343
 20
-261.351840483
 10
541.6896700761
 20
-265.2479722705
 10
546.3383511702
 20
-269.3699835951
 10
550.9224983588
 20
-273.7085367751
 10
555.4317270742
 20
-278.2538035924
 10
559.8558224628
 20
-282.9954875555
 10
564.1847625258
 20
-287.9228472253
 10
568.4087408215
 20
-293.0247205473
 10
572.5181886805
 20
-298.2895501375
 10
576.5037968818
 20
-303.7054094634
 10
580.3565367408
 20
-309.2600298619
 10
584.0676805625
 20
-314.9408283312
 10
587.6288214127
 20
-320.7349360355
 10
591.0318921618
 20
-326.6292274574
 10
594.26918376
 20
-332.6103501309
 10
597.3333627008
 20
-338.6647548896
 10
600.2174876332
 20
-344.7787265592
 10
602.9150250866
 20
-350.9384150276
 10
605.4198642711
 20
-357.1298666192
 10
607.7263309204
 20
-363.3390557046
 10
609.8292001455
 20
-369.5519164737
 10
611.7237082713
 20
-375.7543747984
 10
613.4055636277
 20
-381.9323801157
 10
614.8709562712
 20
-388.0719372566
 10
616.1165666162
 20
-394.1591381494
 10
617.1395729547
 20
-400.1801933262
 10
617.9376578483
 20
-406.1214631606
 10
618.509013378
 20
-411.9694887653
 10
618.8523452397
 20
-417.7110224815
 10
618.9668756763
 20
-423.3330578887
 10
618.8523452397
 20
-428.8228592684
 10
618.509013378
 20
-434.1679904547
 10
617.9376578483
 20
-439.3563430065
 10
617.1395729547
 20
-444.3761636363
 10
616.1165666162
 20
-449.2160808359
 10
614.8709562712
 20
-453.8651306362
 10
613.4055636277
 20
-458.3127814441
 10
611.7237082713
 20
-462.5489579
 10
609.8292001455
 20
-466.5640637017
 10
607.7263309204
 20
-470.3490033432
 10
605.4198642711
 20
-473.8952027188
 10
602.9150250866
 20
-477.1946285464
 10
600.2174876332
 20
-480.2398065653
 10
597.3333627008
 20
-483.0238384677
 10
594.26918376
 20
-485.5404175261
 10
591.0318921618
 20
-487.7838428794
 10
587.6288214127
 20
-489.7490324477
 10
584.0676805625
 20
-491.4315344445
 10
580.3565367408
 20
-492.8275374616
 10
576.5037968818
 20
-493.9338791032
 10
572.5181886805
 20
-494.7480531496
 10
568.4087408215
 20
-495.2682152348
 10
564.1847625258
 20
-495.4931870243
 10
559.8558224628
 20
-495.4224588847
 10
555.4317270742
 20
-495.0561910379
 10
550.9224983588
 20
-494.3952131985
 10
546.3383511702
 20
-493.4410226938
 10
541.6896700761
 20
-492.1957810722
 10
536.9869858343
 20
-490.6623092065
 10
532.2409515372
 20
-488.8440809038
 10
527.4623184789
 20
-486.7452150358
 10
522.6619118004
 20
-484.3704662089
 10
517.8506059666
 20
-481.725213993
 10
513.0393001329
 20
-478.8154507351
 10
508.2388934544
 20
-475.6477679849
 10
503.4602603961
 20
-472.2293415627
 10
498.714226099
 20
-468.5679153038
 10
494.0115418572
 20
-464.6717835162
 10
489.3628607631
 20
-460.5497721917
 10
484.7787135744
 20
-456.2112190116
 10
480.2694848591
 20
-451.6659521944
 10
475.8453894705
 20
-446.9242682312
 10
471.5164494075
 20
-441.9969085614
 10
467.2924711118
 20
-436.8950352394
 10
463.1830232527
 20
-431.6302056493
 10
459.1974150515
 20
-426.2143463233
 10
455.3446751925
 20
-420.6597259248
 10
451.6335313708
 20
-414.9789274556
 10
448.0723905206
 20
-409.1848197512
 10
444.6693197715
 20
-403.2905283293
 10
441.4320281733
 20
-397.3094056558
 10
438.3678492325
 20
-391.2550008971
 10
435.4837243001
 20
-385.1410292275
 10
432.7861868467
 20
-378.9813407591
 10
430.2813476621
 20
-372.7898891676
 10
427.9748810129
 20
-366.5807000821
 10
425.8720117878
 20
-360.367839313
 10
423.977503662
 20
-354.1653809883
 10
422.2956483056
 20
-347.987375671
 10
420.8302556621
 20
-341.8478185301
 10
419.5846453171
 20
-335.7606176373
 10
418.5616389786
 20
-329.7395624605
 10
417.763554085
 20
-323.7982926262
 10
417.1921985553
 20
-317.9502670214
 10
416.8488666936
 20
-312.2087333052
 10
416.734336257
 20
-306.586697898
  0
SPLINE
  5
101
330
1F
100
AcDbEntity
  8
0
  6
Continuous
 62
     7
370
    25
100
AcDbSpline
210
0.0
220
0.0
230
1.0
 70
     8
 71
     3
 72
    12
 73
     8
 74
     0
 42
0.00000001
 43
0.00000001
 40
0.0
 40
0.0
 40
0.0
 40
0.0
 40
0.2452879279282544
 40
0.4905789240038801
 40
0.7358004866044514
 40
0.9810585730814713
 40
1.0
 40
1.0
 40
1.0
 40
1.0
 10
524.9765582451262
 20
-247.2060598396995
 30
0.0
 10
524.2207601438764
 20
-247.0664903491129
 30
0.0
 10
522.7091544875894
 20
-246.7873496221556
 30
0.0
 10
520.8706748467878
 20
-245.8636529736363
 30
0.0
 10
519.7207241995685
 20
-244.6967495182538
 30
0.0
 10
519.2258055657984
 20
-243.7676198780265
 30
0.0
 10
519.3548131052912
 20
-243.2914377389854
 30
0.0
 10
519.3640621264186
 20
-243.257298504319
 30
0.0
  0
SPLINE
  5
102
330
1F
100
AcDbEntity
  8
0
  6
Continuous
 62
     7
370
    25
100
AcDbSpline
210
0.0
220
0.0
230
1.0
 70
     8
 71
     3
 72
    13
 73
     9
 74
     0
 42
0.00000001
 43
0.00000001
 40
0.0
 40
0.0
 40
0.0
 40
0.0
 40
0.1154297247473664
 40
0.3065457577688911
 40
0.497583450269394
 40
0.6883640398721593
 40
0.8790590246408956
 40
1.0
 40
1.0
 40
1.0
 40
1.0
 10
533.2410899519277
 20
-243.1125065586098
 30
0.0
 10
533.2501970541167
 20
-243.4016935032563
 30
0.0
 10
533.2743827094816
 20
-244.1696848614403
 30
0.0
 10
532.4289889594285
 20
-245.3461410594339
 30
0.0
 10
530.8935900735597
 20
-246.4380877839186
 30
0.0
 10
528.8144920299695
 20
-247.1326528142095
 30
0.0
 10
526.742613226395
 20
-247.3595702459794
 30
0.0
 10
525.470316451934
 20
-247.248978675033
 30
0.0
 10
524.9765582451262
 20
-247.2060598396995
 30
0.0
  0
LWPOLYLINE
  5
103
330
1F
100
AcDbEntity
  8
0
  6
Continuous
 62
     7
370
    25
100
AcDbPolyline
 90
      124
 70
   128
 43
0.0
 10
428.9319282324
 20
-313.6282178625
 10
429.0479175712
 20
-308.4522749378
 10
429.3955829847
 20
-303.4237538973
 10
429.9740174535
 20
-298.5557735781
 10
430.7817119081
 20
-293.8610339852
 10
431.8165591659
 20
-289.3517831582
 10
433.0758594286
 20
-285.0397852174
 10
434.5563273255
 20
-280.9362896733
 10
436.254100485
 20
-277.0520020772
 10
438.1647496107
 20
-273.3970560919
 10
440.2832900373
 20
-269.9809870541
 10
442.6041947346
 20
-266.8127070981
 10
445.1214087273
 20
-263.9004819043
 10
447.8283648915
 20
-261.2519091359
 10
450.7180010876
 20
-258.8738986167
 10
453.7827785847
 20
-256.7726543048
 10
457.0147017283
 20
-254.9536581065
 10
460.4053388
 20
-253.4216555753
 10
463.9458440146
 20
-252.1806435309
 10
467.6269805984
 20
-251.233859632
 10
471.4391448864
 20
-250.5837739296
 10
475.3723913771
 20
-250.2320824232
 10
479.4164586796
 20
-250.1797026358
 10
483.560796284
 20
-250.4267712202
 10
487.7945920867
 20
-250.9726436026
 10
492.1068005979
 20
-251.8158956645
 10
496.4861717579
 20
-252.9543274573
 10
500.9212802874
 20
-254.3849689427
 10
505.4005554946
 20
-256.1040877402
 10
509.912311462
 20
-258.1071988653
 10
514.4447775333
 20
-260.3890764296
 10
518.9861290222
 20
-262.9437672753
 10
523.5245180611
 20
-265.7646065055
 10
528.0481045111
 20
-268.8442348727
 10
532.5450868518
 20
-272.1746179783
 10
537.0037329696
 20
-275.747067233
 10
541.412410766
 20
-279.5522625244
 10
545.7596185039
 20
-283.5802765327
 10
550.0340148147
 20
-287.8206006291
 10
554.2244482865
 20
-292.2621722922
 10
558.3199865567
 20
-296.8934039688
 10
562.3099448338
 20
-301.7022133041
 10
566.183913772
 20
-306.6760546636
 10
569.9317866288
 20
-311.8019518632
 10
573.5437856318
 20
-317.0665320223
 10
577.010487488
 20
-322.4560604524
 10
580.3228479681
 20
-327.9564764892
 10
583.4722255018
 20
-333.5534301753
 10
586.4504037227
 20
-339.2323196975
 10
589.2496129038
 20
-344.9783294815
 10
591.8625502282
 20
-350.7764688438
 10
594.2823988405
 20
-356.611611101
 10
596.502845632
 20
-362.468533033
 10
598.5180977107
 20
-368.3319545992
 10
600.3228975139
 20
-374.1865788024
 10
601.912536525
 20
-380.0171315964
 10
603.2828675573
 20
-385.8084017347
 10
604.4303155737
 20
-391.5452804547
 10
605.3518870133
 20
-397.212800895
 10
606.0451776013
 20
-402.7961771417
 10
606.5083786219
 20
-408.2808428038
 10
606.7402816364
 20
-413.6524890147
 10
606.7402816364
 20
-418.8971017629
 10
606.5083786219
 20
-424.0009984525
 10
606.0451776013
 20
-428.9508635997
 10
605.3518870133
 20
-433.7337835716
 10
604.4303155737
 20
-438.3372802762
 10
603.2828675573
 20
-442.749343716
 10
601.912536525
 20
-446.9584633214
 10
600.3228975139
 20
-450.9536579798
 10
598.5180977107
 20
-454.7245046847
 10
596.502845632
 20
-458.2611657274
 10
594.2823988405
 20
-461.5544143632
 10
591.8625502282
 20
-464.5956588824
 10
589.2496129038
 20
-467.3769650252
 10
586.4504037227
 20
-469.8910766815
 10
583.4722255018
 20
-472.131434821
 10
580.3228479681
 20
-474.0921946052
 10
577.010487488
 20
-475.7682406357
 10
573.5437856318
 20
-477.1552002997
 10
569.9317866288
 20
-478.2494551778
 10
566.183913772
 20
-479.048150484
 10
562.3099448338
 20
-479.5492025135
 10
558.3199865567
 20
-479.7513040787
 10
554.2244482865
 20
-479.6539279196
 10
550.0340148147
 20
-479.2573280796
 10
545.7596185039
 20
-478.5625392424
 10
541.412410766
 20
-477.5713740327
 10
537.0037329696
 20
-476.2864182874
 10
532.5450868518
 20
-474.7110243093
 10
528.0481045111
 20
-472.8493021214
 10
523.5245180611
 20
-470.7061087444
 10
518.9861290222
 20
-468.287035525
 10
514.4447775333
 20
-465.5983935491
 10
509.912311462
 20
-462.6471971765
 10
505.4005554946
 20
-459.4411457418
 10
500.9212802874
 20
-455.988603467
 10
496.4861717579
 20
-452.2985776406
 10
492.1068005979
 20
-448.3806951189
 10
487.7945920867
 20
-444.2451772098
 10
483.560796284
 20
-439.9028130075
 10
479.4164586796
 20
-435.3649312443
 10
475.3723913771
 20
-430.6433707357
 10
471.4391448864
 20
-425.750449494
 10
467.6269805984
 20
-420.6989325919
 10
463.9458440146
 20
-415.5019988602
 10
460.4053388
 20
-410.1732065058
 10
457.0147017283
 20
-404.7264577395
 10
453.7827785847
 20
-399.1759625068
 10
450.7180010876
 20
-393.536201416
 10
447.8283648915
 20
-387.8218879601
 10
445.1214087273
 20
-382.0479301302
 10
442.6041947346
 20
-376.2293915231
 10
440.2832900373
 20
-370.3814520416
 10
438.1647496107
 20
-364.5193682923
 10
436.254100485
 20
-358.6584337822
 10
434.5563273255
 20
-352.8139390203
 10
433.0758594286
 20
-347.0011316261
 10
431.8165591659
 20
-341.2351765504
 10
430.7817119081
 20
-335.5311165117
 10
429.9740174535
 20
-329.9038327513
 10
429.3955829847
 20
-324.36800621
 10
429.0479175712
 20
-318.9380792273
 10
428.9319282324
 20
-313.6282178625
  0
LWPOLYLINE
  5
104
330
1F
100
AcDbEntity
  8
0
  6
Continuous
 62
     7
370
    25
100
AcDbPolyline
 90
       15
 70
   128
 43
0.0
 10
607.1754847704
 20
-148.2923558943
 10
607.8785230688
 20
-147.9166067031
 10
611.4396639189
 20
-146.2341047063
 10
615.1508077407
 20
-144.8381016892
 10
619.0035475996
 20
-143.7317600476
 10
622.9891558009
 20
-142.9175860012
 10
627.09860366
 20
-142.397423916
 10
631.3225819557
 20
-142.1724521265
 10
635.6515220187
 20
-142.2431802661
 10
640.0756174073
 20
-142.6094481129
 10
644.5848461226
 20
-143.2704259523
 10
649.1689933112
 20
-144.224616457
 10
653.8176744054
 20
-145.4698580786
 10
658.5203586472
 20
-147.0033299442
 10
662.2775424669
 20
-148.4206515463
  0
LWPOLYLINE
  5
105
330
1F
100
AcDbEntity
  8
0
  6
Continuous
 62
     7
370
    25
100
AcDbPolyline
 90
       52
 70
   128
 43
0.0
 10
676.1714571406
 20
-155.0955879247
 10
677.6567385148
 20
-155.9404251577
 10
682.4680443485
 20
-158.8501884156
 10
687.2684510271
 20
-162.0178711658
 10
692.0470840853
 20
-165.4362975881
 10
696.7931183824
 20
-169.097723847
 10
701.4958026242
 20
-172.9938556346
 10
706.1444837184
 20
-177.1158669591
 10
710.728630907
 20
-181.4544201392
 10
715.2378596223
 20
-185.9996869564
 10
719.661955011
 20
-190.7413709195
 10
723.9908950739
 20
-195.6687305893
 10
728.2148733696
 20
-200.7706039113
 10
732.3243212287
 20
-206.0354335015
 10
736.30992943
 20
-211.4512928275
 10
740.162669289
 20
-217.005913226
 10
743.8738131107
 20
-222.6867116952
 10
747.4349539608
 20
-228.4808193995
 10
750.8380247099
 20
-234.3751108214
 10
754.0753163082
 20
-240.356233495
 10
757.1394952489
 20
-246.4106382536
 10
760.0236201813
 20
-252.5246099233
 10
762.7211576348
 20
-258.6842983917
 10
765.2259968193
 20
-264.8757499832
 10
767.5324634685
 20
-271.0849390687
 10
769.6353326936
 20
-277.2977998377
 10
771.5298408195
 20
-283.5002581624
 10
773.2116961758
 20
-289.6782634798
 10
774.6770888193
 20
-295.8178206206
 10
775.9226991644
 20
-301.9050215134
 10
776.9457055029
 20
-307.9260766903
 10
777.7437903965
 20
-313.8673465246
 10
778.3151459261
 20
-319.7153721293
 10
778.6584777878
 20
-325.4569058456
 10
778.7730082245
 20
-331.0789412527
 10
778.6584777878
 20
-336.5687426324
 10
778.3151459261
 20
-341.9138738188
 10
777.7437903965
 20
-347.1022263705
 10
776.9457055029
 20
-352.1220470003
 10
775.9226991644
 20
-356.9619641999
 10
774.6770888193
 20
-361.6110140003
 10
773.2116961758
 20
-366.0586648082
 10
771.5298408195
 20
-370.294841264
 10
769.6353326936
 20
-374.3099470657
 10
767.5324634685
 20
-378.0948867072
 10
765.2259968193
 20
-381.6410860829
 10
762.7211576348
 20
-384.9405119105
 10
760.0236201813
 20
-387.9856899293
 10
757.1394952489
 20
-390.7697218318
 10
754.0753163082
 20
-393.2863008902
 10
750.8380247099
 20
-395.5297262435
 10
750.149983202
 20
-395.9576601614
  0
SPLINE
  5
106
330
1F
100
AcDbEntity
  8
0
  6
Continuous
 62
     7
370
    25
100
AcDbSpline
210
0.0
220
0.0
230
1.0
 70
     8
 71
     3
 72
    12
 73
     8
 74
     0
 42
0.00000001
 43
0.00000001
 40
0.0
 40
0.0
 40
0.0
 40
0.0
 40
0.2442158691027525
 40
0.4884439859430333
 40
0.7324147363925533
 40
0.9764982723329064
 40
1.0
 40
1.0
 40
1.0
 40
1.0
 10
667.844196606077
 20
-164.5867709740317
 30
0.0
 10
667.0881291448394
 20
-164.4386830262904
 30
0.0
 10
665.5759563046159
 20
-164.1424997040079
 30
0.0
 10
663.7316632340364
 20
-163.2196231484321
 30
0.0
 10
662.5696454571557
 20
-162.0752208188711
 30
0.0
 10
662.0669599497404
 20
-161.1642935980936
 30
0.0
 10
662.1945924617927
 20
-160.6999990831937
 30
0.0
 10
662.2058022888932
 20
-160.6592205922581
 30
0.0
  0
SPLINE
  5
107
330
1F
100
AcDbEntity
  8
0
  6
Continuous
 62
     7
370
    25
100
AcDbSpline
210
0.0
220
0.0
230
1.0
 70
     8
 71
     3
 72
    13
 73
     9
 74
     0
 42
0.00000001
 43
0.00000001
 40
0.0
 40
0.0
 40
0.0
 40
0.0
 40
0.1128981362443445
 40
0.3042775434431853
 40
0.4955185427539596
 40
0.6867156631667857
 40
0.8781139908375798
 40
1.0
 40
1.0
 40
1.0
 40
1.0
 10
676.075338428851
 20
-160.7954352905837
 30
0.0
 10
676.0862101501397
 20
-161.0684455356282
 30
0.0
 10
676.1155110824382
 20
-161.8042494156601
 30
0.0
 10
675.2823573668205
 20
-162.9200562099869
 30
0.0
 10
673.7586858673685
 20
-163.9481974608589
 30
0.0
 10
671.6876652651457
 20
-164.5832139855607
 30
0.0
 10
669.616573727918
 20
-164.7668987528392
 30
0.0
 10
668.3406182398116
 20
-164.6372226105005
 30
0.0
 10
667.844196606077
 20
-164.5867709740317
 30
0.0
  0
LWPOLYLINE
  5
108
330
1F
100
AcDbEntity
  8
0
  6
Continuous
 62
     7
370
    25
100
AcDbPolyline
 90
       30
 70
   128
 43
0.0
 10
531.2856348092
 20
-228.7213040808
 10
532.2339618562
 20
-229.4023718079
 10
532.9065014941
 20
-230.1852037407
 10
533.2718065169
 20
-231.0331955283
 10
533.3127956678
 20
-231.906696017
 10
533.0275523396
 20
-232.7648612949
 10
532.4294141933
 20
-233.5675645073
 10
531.5463495038
 20
-234.2772721442
 10
530.4196493946
 20
-234.8607990652
 10
529.1019971106
 20
-235.2908602001
 10
527.655004608
 20
-235.5473463682
 10
526.1463316482
 20
-235.6182645613
 10
524.6465221018
 20
-235.5002987235
 10
523.2257053964
 20
-235.1989648063
 10
521.950317342
 20
-234.7283528488
 10
520.8799936666
 20
-234.110468143
 10
520.0647815156
 20
-233.3742022911
 10
519.5427993031
 20
-232.553982266
 10
519.3384543373
 20
-231.6881606444
 10
519.4613015617
 20
-230.8172222831
 10
519.9055967765
 20
-229.9818912919
 10
520.6505652314
 20
-229.2212268195
 10
521.6613730294
 20
-228.5707966913
 10
522.8907559212
 20
-228.0610142971
 10
524.2812293292
 20
-227.7157164951
 10
525.7677762622
 20
-227.5510490267
 10
527.2808874379
 20
-227.5747115599
 10
528.7498114593
 20
-227.7855976607
 10
530.1058630718
 20
-228.1738465295
 10
531.2856348092
 20
-228.7213040808
  0
LWPOLYLINE
  5
109
330
1F
100
AcDbEntity
  8
0
  6
Continuous
 62
     7
370
    25
100
AcDbPolyline
 90
       25
 70
   128
 43
0.0
 10
529.8714212468
 20
-229.5377121926
 10
530.6660143598
 20
-230.135513192
 10
531.1655164723
 20
-230.8316672002
 10
531.3358873409
 20
-231.5787324722
 10
531.1655164723
 20
-232.3257977442
 10
530.6660143598
 20
-233.0219517524
 10
529.8714212468
 20
-233.6197527518
 10
528.8358873409
 20
-234.078461592
 10
527.6299825664
 20
-234.3668180237
 10
526.3358873409
 20
-234.4651710326
 10
525.0417921154
 20
-234.3668180237
 10
523.8358873409
 20
-234.078461592
 10
522.800353435
 20
-233.6197527518
 10
522.005760322
 20
-233.0219517524
 10
521.5062582094
 20
-232.3257977442
 10
521.3358873409
 20
-231.5787324722
 10
521.5062582094
 20
-230.8316672002
 10
522.005760322
 20
-230.135513192
 10
522.800353435
 20
-229.5377121926
 10
523.8358873409
 20
-229.0790033524
 10
525.0417921154
 20
-228.7906469207
 10
526.3358873409
 20
-228.6922939118
 10
527.6299825664
 20
-228.7906469207
 10
528.8358873409
 20
-229.0790033524
 10
529.8714212468
 20
-229.5377121926
  0
LWPOLYLINE
  5
10A
330
1F
100
AcDbEntity
  8
0
  6
Continuous
 62
     7
370
    25
100
AcDbPolyline
 90
       30
 70
   128
 43
0.0
 10
664.2217096723
 20
-151.9789415695
 10
663.2733826253
 20
-151.2978738424
 10
662.6008429873
 20
-150.5150419096
 10
662.2355379645
 20
-149.667050122
 10
662.1945488136
 20
-148.7935496333
 10
662.4797921419
 20
-147.9353843554
 10
663.0779302882
 20
-147.132681143
 10
663.9609949776
 20
-146.4229735061
 10
665.0876950868
 20
-145.8394465851
 10
666.4053473709
 20
-145.4093854502
 10
667.8523398734
 20
-145.1528992821
 10
669.3610128333
 20
-145.081981089
 10
670.8608223797
 20
-145.1999469268
 10
672.281639085
 20
-145.501280844
 10
673.5570271394
 20
-145.9718928015
 10
674.6273508149
 20
-146.5897775073
 10
675.4425629659
 20
-147.3260433592
 10
675.9645451783
 20
-148.1462633844
 10
676.1688901441
 20
-149.0120850059
 10
676.0460429198
 20
-149.8830233672
 10
675.6017477049
 20
-150.7183543584
 10
674.85677925
 20
-151.4790188308
 10
673.8459714521
 20
-152.1294489591
 10
672.6165885603
 20
-152.6392313533
 10
671.2261151523
 20
-152.9845291553
 10
669.7395682193
 20
-153.1491966236
 10
668.2264570436
 20
-153.1255340905
 10
666.7575330222
 20
-152.9146479896
 10
665.4014814096
 20
-152.5263991208
 10
664.2217096723
 20
-151.9789415695
  0
LWPOLYLINE
  5
10B
330
1F
100
AcDbEntity
  8
0
  6
Continuous
 62
     7
370
    25
100
AcDbPolyline
 90
       25
 70
   128
 43
0.0
 10
665.6359232346
 20
-151.1625334577
 10
664.8413301216
 20
-150.5647324583
 10
664.3418280091
 20
-149.8685784501
 10
664.1714571406
 20
-149.1215131781
 10
664.3418280091
 20
-148.3744479062
 10
664.8413301216
 20
-147.6782938979
 10
665.6359232346
 20
-147.0804928986
 10
666.6714571406
 20
-146.6217840583
 10
667.8773619151
 20
-146.3334276266
 10
669.1714571406
 20
-146.2350746177
 10
670.4655523661
 20
-146.3334276266
 10
671.6714571406
 20
-146.6217840583
 10
672.7069910465
 20
-147.0804928986
 10
673.5015841595
 20
-147.6782938979
 10
674.001086272
 20
-148.3744479062
 10
674.1714571406
 20
-149.1215131781
 10
674.001086272
 20
-149.8685784501
 10
673.5015841595
 20
-150.5647324583
 10
672.7069910465
 20
-151.1625334577
 10
671.6714571406
 20
-151.6212422979
 10
670.4655523661
 20
-151.9095987296
 10
669.1714571406
 20
-152.0079517385
 10
667.8773619151
 20
-151.9095987296
 10
666.6714571406
 20
-151.6212422979
 10
665.6359232346
 20
-151.1625334577
  0
LWPOLYLINE
  5
10C
330
1F
100
AcDbEntity
  8
0
  6
Continuous
 62
     1
370
    25
100
AcDbPolyline
 90
       68
 70
   128
 43
0.0
 10
516.9204760855
 20
-199.224456847
 10
518.6486624813
 20
-198.2735642895
 10
522.2347064143
 20
-196.5792965445
 10
525.9718022907
 20
-195.1735312685
 10
529.8514843865
 20
-194.0594529721
 10
533.8649639738
 20
-193.2395854009
 10
538.0031492305
 20
-192.7157858186
 10
542.2566658359
 20
-192.4892407998
 10
546.615878207
 20
-192.5604635418
 10
551.0709113257
 20
-192.9292927022
 10
555.6116731089
 20
-193.5948927642
 10
560.2278772709
 20
-194.5557559298
 10
564.9090666244
 20
-195.8097055347
 10
569.64463677
 20
-197.3539009799
 10
574.4238601182
 20
-199.1848441659
 10
579.2359101908
 20
-201.2983874175
 10
584.0698861468
 20
-203.6897428796
 10
588.9148374759
 20
-206.3534933627
 10
593.759788805
 20
-209.2836046154
 10
598.593764761
 20
-212.4734389932
 10
603.4058148336
 20
-215.9157704954
 10
608.1850381818
 20
-219.6028011337
 10
612.9206083274
 20
-223.5261785981
 10
617.6017976809
 20
-227.6770151767
 10
622.2180018429
 20
-232.0459078895
 10
626.7587636261
 20
-236.6229597893
 10
631.2137967447
 20
-241.3978023816
 10
635.5730091158
 20
-246.359619112
 10
639.8265257213
 20
-251.4971698698
 10
643.964710978
 20
-256.7988164501
 10
647.9781905653
 20
-262.2525489183
 10
651.857872661
 20
-267.846012816
 10
655.5949685375
 20
-273.5665371487
 10
659.1810124705
 20
-279.4011630887
 10
662.6078809171
 20
-285.3366733317
 10
665.8678109182
 20
-291.359622038
 10
668.9534176837
 20
-297.4563652915
 10
671.8577113219
 20
-303.6130920078
 10
674.5741126736
 20
-309.8158552207
 10
677.0964682161
 20
-316.0506036765
 10
679.4190640027
 20
-322.3032136647
 10
681.536638607
 20
-328.5595210125
 10
683.4443950414
 20
-334.8053531716
 10
685.1380116241
 20
-341.0265613234
 10
686.6136517686
 20
-347.2090524303
 10
687.8679726755
 20
-353.3388211615
 10
688.8981329045
 20
-359.4019816193
 10
689.7017988113
 20
-365.3847987951
 10
690.2771498341
 20
-371.2737196838
 10
690.622882618
 20
-377.0554039854
 10
690.7382139668
 20
-382.7167543255
 10
690.622882618
 20
-388.2449459246
 10
690.2771498341
 20
-393.6274556508
 10
689.7017988113
 20
-398.8520903882
 10
688.8981329045
 20
-403.9070146587
 10
687.8679726755
 20
-408.7807774332
 10
686.6136517686
 20
-413.4623380713
 10
685.1380116241
 20
-417.9410913324
 10
683.4443950414
 20
-422.2068913998
 10
681.536638607
 20
-426.2500748645
 10
679.4190640027
 20
-430.0614826154
 10
677.0964682161
 20
-433.632480588
 10
674.5741126736
 20
-436.9549793235
 10
671.8577113219
 20
-440.0214522935
 10
668.9534176837
 20
-442.8249529506
 10
665.8678109182
 20
-445.3591304639
 10
662.6078809171
 20
-447.6182441064
 10
660.9090849442
 20
-448.6463494679
  0
LWPOLYLINE
  5
10D
330
1F
100
AcDbEntity
  8
0
  6
Continuous
 62
     1
370
    25
100
AcDbPolyline
 90
       68
 70
   128
 43
0.0
 10
534.5983582558
 20
-189.0192326937
 10
536.326332011
 20
-188.0684628917
 10
539.912375944
 20
-186.3741951467
 10
543.6494718204
 20
-184.9684298707
 10
547.5291539162
 20
-183.8543515743
 10
551.5426335035
 20
-183.0344840031
 10
555.6808187601
 20
-182.5106844208
 10
559.9343353656
 20
-182.284139402
 10
564.2935477367
 20
-182.355362144
 10
568.7485808553
 20
-182.7241913044
 10
573.2893426386
 20
-183.3897913665
 10
577.9055468006
 20
-184.350654532
 10
582.5867361541
 20
-185.604604137
 10
587.3223062997
 20
-187.1487995821
 10
592.1015296478
 20
-188.9797427681
 10
596.9135797205
 20
-191.0932860197
 10
601.7475556765
 20
-193.4846414818
 10
606.5925070056
 20
-196.1483919649
 10
611.4374583346
 20
-199.0785032176
 10
616.2714342907
 20
-202.2683375955
 10
621.0834843633
 20
-205.7106690976
 10
625.8627077114
 20
-209.397699736
 10
630.598277857
 20
-213.3210772003
 10
635.2794672106
 20
-217.4719137789
 10
639.8956713725
 20
-221.8408064917
 10
644.4364331558
 20
-226.4178583916
 10
648.8914662744
 20
-231.1927009838
 10
653.2506786455
 20
-236.1545177142
 10
657.504195251
 20
-241.2920684721
 10
661.6423805077
 20
-246.5937150524
 10
665.655860095
 20
-252.0474475205
 10
669.5355421907
 20
-257.6409114183
 10
673.2726380672
 20
-263.3614357509
 10
676.8586820001
 20
-269.1960616909
 10
680.2855504468
 20
-275.131571934
 10
683.5454804478
 20
-281.1545206402
 10
686.6310872134
 20
-287.2512638937
 10
689.5353808516
 20
-293.40799061
 10
692.2517822033
 20
-299.6107538229
 10
694.7741377458
 20
-305.8455022787
 10
697.0967335324
 20
-312.0981122669
 10
699.2143081367
 20
-318.3544196147
 10
701.1220645711
 20
-324.6002517739
 10
702.8156811537
 20
-330.8214599256
 10
704.2913212982
 20
-337.0039510325
 10
705.5456422051
 20
-343.1337197637
 10
706.5758024341
 20
-349.1968802215
 10
707.3794683409
 20
-355.1796973973
 10
707.9548193638
 20
-361.068618286
 10
708.3005521476
 20
-366.8503025876
 10
708.4158834964
 20
-372.5116529277
 10
708.3005521476
 20
-378.0398445268
 10
707.9548193638
 20
-383.422354253
 10
707.3794683409
 20
-388.6469889904
 10
706.5758024341
 20
-393.701913261
 10
705.5456422051
 20
-398.5756760354
 10
704.2913212982
 20
-403.2572366735
 10
702.8156811537
 20
-407.7359899346
 10
701.1220645711
 20
-412.0017900021
 10
699.2143081367
 20
-416.0449734667
 10
697.0967335324
 20
-419.8563812176
 10
694.7741377458
 20
-423.4273791902
 10
692.2517822033
 20
-426.7498779257
 10
689.5353808516
 20
-429.8163508958
 10
686.6310872134
 20
-432.6198515528
 10
683.5454804478
 20
-435.1540290661
 10
680.2855504468
 20
-437.4131427086
 10
678.5866557554
 20
-438.4413050593
  0
ENDSEC
  0
SECTION
  2
OBJECTS
  0
DICTIONARY
  5
C
330
0
100
AcDbDictionary
281
     1
  3
ACAD_GROUP
350
D
  3
ACAD_LAYOUT
350
1A
  3
ACAD_MLINESTYLE
350
17
  3
ACAD_PLOTSETTINGS
350
19
  3
ACAD_PLOTSTYLENAME
350
E
  3
ACAD_SCALELIST
350
47
  3
DWGPROPS
350
10E
  0
DICTIONARY
  5
D
102
{ACAD_REACTORS
330
C
102
}
330
C
100
AcDbDictionary
281
     1
  0
DICTIONARY
  5
1A
102
{ACAD_REACTORS
330
C
102
}
330
C
100
AcDbDictionary
281
     1
  3
Layout1
350
1E
  3
Layout2
350
26
  3
Model
350
22
  0
DICTIONARY
  5
17
102
{ACAD_REACTORS
330
C
102
}
330
C
100
AcDbDictionary
281
     1
  3
Standard
350
18
  0
DICTIONARY
  5
19
102
{ACAD_REACTORS
330
C
102
}
330
C
100
AcDbDictionary
281
     1
  0
ACDBDICTIONARYWDFLT
  5
E
102
{ACAD_REACTORS
330
C
102
}
330
C
100
AcDbDictionary
281
     1
  3
Normal
350
F
100
AcDbDictionaryWithDefault
340
F
  0
DICTIONARY
  5
47
102
{ACAD_REACTORS
330
C
102
}
330
C
100
AcDbDictionary
281
     1
  3
A0
350
48
  3
A1
350
49
  3
A2
350
4A
  3
A3
350
4B
  3
A4
350
4C
  3
A5
350
4D
  3
A6
350
4E
  3
A7
350
4F
  3
A8
350
50
  3
A9
350
51
  3
B0
350
52
  3
B1
350
53
  3
B2
350
54
  3
B3
350
55
  3
B4
350
56
  3
B5
350
57
  3
B6
350
58
  3
B7
350
59
  3
B8
350
5A
  3
B9
350
5B
  3
C0
350
5C
  3
C1
350
5D
  3
C2
350
5E
  3
C3
350
5F
  3
C4
350
60
  3
C5
350
61
  3
C6
350
62
  3
C7
350
63
  3
C8
350
64
  3
C9
350
65
  3
D0
350
66
  3
D1
350
67
  3
D2
350
68
  0
XRECORD
  5
10E
102
{ACAD_REACTORS
330
C
102
}
330
C
100
AcDbXrecord
280
     1
  1
DWGPROPS COOKIE
  2

  3

  4

  6

  7

  8
b.kav
  9

300
=
301
=
302
=
303
=
304
=
305
=
306
=
307
=
308
=
309
=
 40
0.0
 41
2460616.541902083
 42
2460616.541902268
  1

 90
        0
  0
LAYOUT
  5
1E
102
{ACAD_REACTORS
330
1A
102
}
330
1A
100
AcDbPlotSettings
  1

  2
none_device
  4

  6

 40
0.0
 41
0.0
 42
0.0
 43
0.0
 44
0.0
 45
0.0
 46
0.0
 47
0.0
 48
0.0
 49
0.0
140
0.0
141
0.0
142
1.0
143
1.0
 70
   688
 72
     1
 73
     0
 74
     5
  7

 75
    16
147
1.0
148
0.0
149
0.0
100
AcDbLayout
  1
Layout1
 70
     1
 71
     1
 10
0.0
 20
0.0
 11
420.0
 21
297.0
 12
0.0
 22
0.0
 32
0.0
 14
1.0000000000E+20
 24
1.0000000000E+20
 34
1.0000000000E+20
 15
-1.0000000000E+20
 25
-1.0000000000E+20
 35
-1.0000000000E+20
146
0.0
 13
0.0
 23
0.0
 33
0.0
 16
1.0
 26
0.0
 36
0.0
 17
0.0
 27
1.0
 37
0.0
 76
     0
330
1B
  0
LAYOUT
  5
26
102
{ACAD_REACTORS
330
1A
102
}
330
1A
100
AcDbPlotSettings
  1

  2
none_device
  4

  6

 40
0.0
 41
0.0
 42
0.0
 43
0.0
 44
0.0
 45
0.0
 46
0.0
 47
0.0
 48
0.0
 49
0.0
140
0.0
141
0.0
142
1.0
143
1.0
 70
   688
 72
     1
 73
     0
 74
     5
  7

 75
    16
147
1.0
148
0.0
149
0.0
100
AcDbLayout
  1
Layout2
 70
     1
 71
     2
 10
0.0
 20
0.0
 11
0.0
 21
0.0
 12
0.0
 22
0.0
 32
0.0
 14
0.0
 24
0.0
 34
0.0
 15
0.0
 25
0.0
 35
0.0
146
0.0
 13
0.0
 23
0.0
 33
0.0
 16
1.0
 26
0.0
 36
0.0
 17
0.0
 27
1.0
 37
0.0
 76
     0
330
23
  0
LAYOUT
  5
22
102
{ACAD_REACTORS
330
1A
102
}
330
1A
100
AcDbPlotSettings
  1

  2
none_device
  4
Letter_(8.50_x_11.00_Inches)
  6

 40
6.35
 41
6.35
 42
6.35000508
 43
6.35000508
 44
215.9
 45
279.4
 46
0.0
 47
0.0
 48
0.0
 49
0.0
140
0.0
141
0.0
142
1.0
143
1.0
 70
  1712
 72
     1
 73
     0
 74
     0
  7

 75
     0
147
1.0
148
0.0
149
0.0
100
AcDbLayout
  1
Model
 70
     1
 71
     0
 10
0.0
 20
0.0
 11
279.4
 21
215.9
 12
0.0
 22
0.0
 32
0.0
 14
0.0
 24
0.0
 34
0.0
 15
279.4
 25
215.9
 35
0.0
146
0.0
 13
0.0
 23
0.0
 33
0.0
 16
1.0
 26
0.0
 36
0.0
 17
0.0
 27
1.0
 37
0.0
 76
     0
330
1F
331
29
  0
MLINESTYLE
  5
18
102
{ACAD_REACTORS
330
17
102
}
330
17
100
AcDbMlineStyle
  2
Standard
 70
     0
  3

 62
   256
 51
90.0
 52
90.0
 71
     2
 49
0.5
 62
   256
  6
BYLAYER
 49
-0.5
 62
   256
  6
BYLAYER
  0
ACDBPLACEHOLDER
  5
F
102
{ACAD_REACTORS
330
E
102
}
330
E
  0
SCALE
  5
48
102
{ACAD_REACTORS
330
47
102
}
330
47
100
AcDbScale
 70
     0
300
1:1
140
1.0
141
1.0
290
     1
  0
SCALE
  5
49
102
{ACAD_REACTORS
330
47
102
}
330
47
100
AcDbScale
 70
     0
300
1:2
140
1.0
141
2.0
290
     0
  0
SCALE
  5
4A
102
{ACAD_REACTORS
330
47
102
}
330
47
100
AcDbScale
 70
     0
300
1:4
140
1.0
141
4.0
290
     0
  0
SCALE
  5
4B
102
{ACAD_REACTORS
330
47
102
}
330
47
100
AcDbScale
 70
     0
300
1:5
140
1.0
141
5.0
290
     0
  0
SCALE
  5
4C
102
{ACAD_REACTORS
330
47
102
}
330
47
100
AcDbScale
 70
     0
300
1:8
140
1.0
141
8.0
290
     0
  0
SCALE
  5
4D
102
{ACAD_REACTORS
330
47
102
}
330
47
100
AcDbScale
 70
     0
300
1:10
140
1.0
141
10.0
290
     0
  0
SCALE
  5
4E
102
{ACAD_REACTORS
330
47
102
}
330
47
100
AcDbScale
 70
     0
300
1:16
140
1.0
141
16.0
290
     0
  0
SCALE
  5
4F
102
{ACAD_REACTORS
330
47
102
}
330
47
100
AcDbScale
 70
     0
300
1:20
140
1.0
141
20.0
290
     0
  0
SCALE
  5
50
102
{ACAD_REACTORS
330
47
102
}
330
47
100
AcDbScale
 70
     0
300
1:30
140
1.0
141
30.0
290
     0
  0
SCALE
  5
51
102
{ACAD_REACTORS
330
47
102
}
330
47
100
AcDbScale
 70
     0
300
1:40
140
1.0
141
40.0
290
     0
  0
SCALE
  5
52
102
{ACAD_REACTORS
330
47
102
}
330
47
100
AcDbScale
 70
     0
300
1:50
140
1.0
141
50.0
290
     0
  0
SCALE
  5
53
102
{ACAD_REACTORS
330
47
102
}
330
47
100
AcDbScale
 70
     0
300
1:100
140
1.0
141
100.0
290
     0
  0
SCALE
  5
54
102
{ACAD_REACTORS
330
47
102
}
330
47
100
AcDbScale
 70
     0
300
2:1
140
2.0
141
1.0
290
     0
  0
SCALE
  5
55
102
{ACAD_REACTORS
330
47
102
}
330
47
100
AcDbScale
 70
     0
300
4:1
140
4.0
141
1.0
290
     0
  0
SCALE
  5
56
102
{ACAD_REACTORS
330
47
102
}
330
47
100
AcDbScale
 70
     0
300
8:1
140
8.0
141
1.0
290
     0
  0
SCALE
  5
57
102
{ACAD_REACTORS
330
47
102
}
330
47
100
AcDbScale
 70
     0
300
10:1
140
10.0
141
1.0
290
     0
  0
SCALE
  5
58
102
{ACAD_REACTORS
330
47
102
}
330
47
100
AcDbScale
 70
     0
300
100:1
140
100.0
141
1.0
290
     0
  0
SCALE
  5
59
102
{ACAD_REACTORS
330
47
102
}
330
47
100
AcDbScale
 70
     0
300
1/128" = 1'-0"
140
0.0078125
141
12.0
290
     0
  0
SCALE
  5
5A
102
{ACAD_REACTORS
330
47
102
}
330
47
100
AcDbScale
 70
     0
300
1/64" = 1'-0"
140
0.015625
141
12.0
290
     0
  0
SCALE
  5
5B
102
{ACAD_REACTORS
330
47
102
}
330
47
100
AcDbScale
 70
     0
300
1/32" = 1'-0"
140
0.03125
141
12.0
290
     0
  0
SCALE
  5
5C
102
{ACAD_REACTORS
330
47
102
}
330
47
100
AcDbScale
 70
     0
300
1/16" = 1'-0"
140
0.0625
141
12.0
290
     0
  0
SCALE
  5
5D
102
{ACAD_REACTORS
330
47
102
}
330
47
100
AcDbScale
 70
     0
300
3/32" = 1'-0"
140
0.09375
141
12.0
290
     0
  0
SCALE
  5
5E
102
{ACAD_REACTORS
330
47
102
}
330
47
100
AcDbScale
 70
     0
300
1/8" = 1'-0"
140
0.125
141
12.0
290
     0
  0
SCALE
  5
5F
102
{ACAD_REACTORS
330
47
102
}
330
47
100
AcDbScale
 70
     0
300
3/16" = 1'-0"
140
0.1875
141
12.0
290
     0
  0
SCALE
  5
60
102
{ACAD_REACTORS
330
47
102
}
330
47
100
AcDbScale
 70
     0
300
1/4" = 1'-0"
140
0.25
141
12.0
290
     0
  0
SCALE
  5
61
102
{ACAD_REACTORS
330
47
102
}
330
47
100
AcDbScale
 70
     0
300
3/8" = 1'-0"
140
0.375
141
12.0
290
     0
  0
SCALE
  5
62
102
{ACAD_REACTORS
330
47
102
}
330
47
100
AcDbScale
 70
     0
300
1/2" = 1'-0"
140
0.5
141
12.0
290
     0
  0
SCALE
  5
63
102
{ACAD_REACTORS
330
47
102
}
330
47
100
AcDbScale
 70
     0
300
3/4" = 1'-0"
140
0.75
141
12.0
290
     0
  0
SCALE
  5
64
102
{ACAD_REACTORS
330
47
102
}
330
47
100
AcDbScale
 70
     0
300
1" = 1'-0"
140
1.0
141
12.0
290
     0
  0
SCALE
  5
65
102
{ACAD_REACTORS
330
47
102
}
330
47
100
AcDbScale
 70
     0
300
1-1/2" = 1'-0"
140
1.5
141
12.0
290
     0
  0
SCALE
  5
66
102
{ACAD_REACTORS
330
47
102
}
330
47
100
AcDbScale
 70
     0
300
3" = 1'-0"
140
3.0
141
12.0
290
     0
  0
SCALE
  5
67
102
{ACAD_REACTORS
330
47
102
}
330
47
100
AcDbScale
 70
     0
300
6" = 1'-0"
140
6.0
141
12.0
290
     0
  0
SCALE
  5
68
102
{ACAD_REACTORS
330
47
102
}
330
47
100
AcDbScale
 70
     0
300
1'-0" = 1'-0"
140
12.0
141
12.0
290
     0
  0
ENDSEC
  0
EOF
